Song name
# A B C D E F G H I J K L M N O P Q R S T U V W X Y Z

Santana - Game Of Love tab

Santana (featuring Michelle Branch)
Game of Love
Shaman
Transcribed by AreizA: areiza22@hotmail.com

This is only the intro 
-is all my own work-


h=  hammer on
^=  bend (full)
^r= released bend
p=  pull off
/=  shift slide

1. cd version
 
|---------------------10-10-10-10-10-10h12---------------------
|----------10---10-12-----------------------10h12-10h12-10h12--
|---9/11-------------------------------------------------------
|--------------------------------------------------------------
|--------------------------------------------------------------
|--------------------------------------------------------------



|-------------------------------
|-----------------10-12----10---
|-----11--9/11----------11------
|--12---------------------------
|-------------------------------
|-------------------------------


|-------10-10-10-10-10-12-12^-12^-12^rp10-12p10-10h12---
|-10/12-------------------------------------------------
|-------------------------------------------------------
|-------------------------------------------------------
|-------------------------------------------------------
|-------------------------------------------------------



2 VMALA's live performance version 


|--------------------------10-10-10-10-10-10h12---------------------
|--------10----10----10-12-----------------------10h12-10h12-10h12--
|---9/11----11------------------------------------------------------
|-------------------------------------------------------------------
|-------------------------------------------------------------------
|-------------------------------------------------------------------



|-------------------------------
|----------------12-10----10----
|------9/11-9/11-------11-------
|-9-12--------------------------
|-------------------------------
|-------------------------------


|-------10-10-10-10-10-12-12^-12^-12^rp10-12p10---------
|-10h12-------------------------------------------------
|-------------------------------------------------------
|-------------------------------------------------------
|-------------------------------------------------------
|-------------------------------------------------------
Tap to rate this tab
 
# A B C D E F G H I J K L M N O P Q R S T U V W X Y Z