Song name
# A B C D E F G H I J K L M N O P Q R S T U V W X Y Z

Santhosh Narayanan - Mogathirai - Pizza chords

Highlighted       Show chord diagrams
                                               Mogathirai-Pizza

INTRO SOLO OF 3 GUITARS

e 9--10---7/9----9--10--7/9----9--7--5-------------------------7---9--10---7/9----|
b--------------------------------------5---5/7---8---7--5---5---------------------|
g---------------------------------------------------------------------------------|
d---------------------------------------------------------------------------------|
a---------------------------------------------------------------------------------|
e---------------------------------------------------------------------------------|




e--------------5---7-----9---7-----------------10/12---10--9--7---7/9---5\4---------|
b-----5---7-----------------------5-------------------------------------------------|
g-----------------------------------------------------------------------------------|
d----------------------------------------7------------------------------------------|
a-----------------------------------------------------------------------------------|
e-----------------------------------------------------------------------------------|

CAPO II
2x E-E

E            B
un          uyir
G            A
athan     isai
Am        Bm
then      tharum
E           Am
poo vin nizhalalo


E                Am
mogathirai moonram pirai
E                        Am
moongil maram mutham tharum
E                Am
mogathirai moonram pirai
E                       Am
moongil maram mutham tharum

2x - E- G-D-A-E

Bm                  E
imai viralgalai kaatrai kai veesu
Bm                    E           F#m       C#m
malar panikaiyil mounam nee pesu..kaadhale
E                       Bm
thanimaiyil oru kaadhal thaal pottu
E                    Bm        F#m      C#m
idaiveliyinil ennai nee pootu..kaadhale

E
theendum dhinam
Am
thendral manam
E
koonthal idai
Am
vennir mazhai
E                    Am
un kaadhalal ennil nooru kaana

2x- E-E

E            B
un          uyir
G            A
athan     isai
Am        Bm
then      tharum
E           Am
poo vin nizhalalo

E                Am
mogathirai moonram pirai
E                        Am
moongil maram mutham tharum
E                Am
mogathirai moonram pirai
E                       Am
moongil maram mutham tharum

E
Megam Ivan
Am
Thooral ival
E
Naatkal ivan
Am
neram ival
E
Kaathu ivan
Am
vaasam ival
E
vaarthai ivan
Am
Artham ivan

2x E-E

Strumming Pattern is D-DUD. Lovely song and easy to play in guitar. Practice well! enjoy!
Tap to rate this tab
# A B C D E F G H I J K L M N O P Q R S T U V W X Y Z