Song name
# A B C D E F G H I J K L M N O P Q R S T U V W X Y Z

Santiago Motorizado - Algun Da Jenny tab

Artista: Santiago Motorizado
Titulo: Algun Día Jenny
Tab de Ivityvi

Intro
F5-Bb5-F5-F#5
F5-Bb5-F#5-Bb5

F5             Bb5
Cuando juntes fuerzas
       F5             F#5
las cosas van a estar mucho mejor.
F5             Bb5
Cuando juntes fuerzas
          F#5   Bb5
chica de otoño.

F5            Bb5       F5           F#5
Este invierno frío me hizo pensar en nosotros dos,
    F5       Bb5            F#5   Bb5
que quiero decirtelo, mejor.

 F5           Bb5              F5           F#5
Te acordás la tarde en que nos dimos cuenta de nuestro amor,
   F5           Bb5           F#5   Bb5
Oh Jenny, fue todo tan mágico.

F5 Bb5           F5 Bb5
Jenny, algún día Jenny,
            F#5  Bb5
todo lo que ves 
            F#5      G#5
todo lo que ves será nuestro, nena.

F5 Bb5           F5 Bb5
Jenny, algún día Jenny,
            F#5  Bb5
todo lo que ves 
            F#5      G#5
todo lo que ves será nuestro, nena.

F5           Bb5
Ya no quiero viajar y viajar,
F5           Bb5
Ya no quiero viajar y viajar,
     F#5              G#5
esta noche quiero que duermas conmigo. 

F5           Bb5
Ya no quiero viajar y viajar,
F5           Bb5
Ya no quiero viajar y viajar,
     F#5              G#5
esta noche quiero que duermas conmigo. 

Riff A
E -----------------|-----------------|-----------------|-----------------|
B -----------------|-----------------|-----------------|-----------------|
G -----------------|-----------------|-----------------|-----------------|
D 1-1--------------|-----------------|1-1--------------|-----------------|
A ----3-3-1-1------|1-1--------------|----3-3-1-1------|1-1--------------|
E ------------4-4--|----4-1----------|------------4-4--|----4-1----------|

Riff B
E -----------------|-----------------|-----------------|-----------------|
B -----------------|-----------------|-----------------|-----------------|
G -----------------|-----------------|-----------------|-----------------|
D -----------------|-----------------|1-1-1-3-3-3-4-4-4|-6-6-6-6-6-------|
A ------------1-1-1|-3-3-3-3-3-3-3---|-----------------|-----------------|
E 2-2-2-4-4-4------|-----------------|-----------------|-----------------|

Riff A
Riff B

F5             Bb5
Cuando juntes fuerzas
       F5             F#5
las cosas van a estar mucho mejor.
F5             Bb5
Cuando juntes fuerzas
          F#5   Bb5
chica de otoño.

F5            Bb5       F5           F#5
Este invierno frío me hizo pensar en nosotros dos,
    F5           Bb5            F#5   Bb5
Oh, Jenny, fue todo tan magico.

F5 Bb5           F5 Bb5
Jenny, algún día Jenny,
            F#5  Bb5
todo lo que ves 
            F#5      G#5
todo lo que ves será nuestro, nena.

F5 Bb5           F5 Bb5
Jenny, algún día Jenny,
            F#5  Bb5
todo lo que ves 
            F#5      G#5
todo lo que ves será nuestro, nena.


F5           Bb5
Ya no quiero viajar y viajar,
F5           Bb5
Ya no quiero viajar y viajar,
     F#5              G#5
esta noche quiero que duermas conmigo.

F5           Bb5
Ya no quiero viajar y viajar,
F5           Bb5
Ya no quiero viajar y viajar,
     F#5              G#5
esta noche quiero que duermas conmigo. 

F5 Bb5           F5 Bb5
Jenny, algún día Jenny,
            F#5  Bb5
todo lo que ves 
            F#5      G#5
todo lo que ves será nuestro, nena.

F5 Bb5       F5 Bb5
Jenny, Jeeeeeeeenny
            F#5  Bb5
todo lo que ves 
            F#5      G#5
todo lo que ves será nuestro, nena.

F5       Bb5
uh uuh uuh uuh (Se repite hasta el final)
Tap to rate this tab
 
# A B C D E F G H I J K L M N O P Q R S T U V W X Y Z