Song name
# A B C D E F G H I J K L M N O P Q R S T U V W X Y Z

Santigold - Disparate Youth tab

-----------------------------------------------------------------------------
                             Disparate Youth - Santigold
-----------------------------------------------------------------------------
Tabbed by: Greg Cully
Email:

Tuning:Standard

Keyboard Intro: (I play it palm muted)

e|--------------------------------------------------------------------------|
B|-----------------------6-----6---------1-----1---------1-----1------------|
G|---------------------6-----6-----6---1-----1-----1---1-----1-----1--------|
D|---3-6----3-6----3-8-----8-----8---3-----3-----3---3-----3-----3----------|
A|-4------4------4----------------------------------------------------------|
E|--------------------------------------------------------------------------|

Verse part 1

e|--------------------------------------------------------------------------|
B| ----------------------------------9---9--9--9--9--9----9---9--9--9--9--9-|
G|----------------------------------10--10-10-10-10-10---10--10-10-10-10-10-|
D|----------------------------------10--10-10-10-10-10---10--10-10-10-10-10-|
A|4-4-4-4-4-4-4-4----1-1-1-1-1-1-1---8---8--8--8--8--8----8---8--8--8--8--8-|
E|--------------------------------------------------------------------------|

Verse part 2- I wrote the full chords but I think it sounds better if you 
avoid the b and e string...

e|-4----4----1----1----8----8----8----8-------------------------------------|
B|-6----6----2----2----9----9----9----9-------------------------------------|
G|-6----6----3----3---10---10---10---10-------------------------------------|
D|-6----6----3----3---10---10---10---10-------------------------------------|
A|-4----4----1----1----8----8----8----8-------------------------------------|
E|--------------------------------------------------------------------------|


************************************

| /   slide up
| \   slide down
| h   hammer-on
| p   pull-off
| ~   vibrato
| +   harmonic
| x   Mute note
| b   Bend
| pb  Pre-bend
| br  Bend release
| pbr Pre-bend release
| brb Bend release bend

************************************

Website: Santigold.com
Tap to rate this tab
# A B C D E F G H I J K L M N O P Q R S T U V W X Y Z