Song name
# A B C D E F G H I J K L M N O P Q R S T U V W X Y Z

Santo And Johnny - Sleepwalk tab

Guitar chords on top and bass on the tab, sounds perfect to me enjoy! ;)



       C          Am             Fm           G7
g[------------|------------|------------|--------------|
d[------------|------------|------------|--------------|
a[-3------3-2-|-0------0---|------------|----------0-2-|
E[------------|----------3-|-1------1-2-|-3------3-----|

        C          Am             Fm           G7
g[------------|------------|------------|--------------|
d[------------|------------|------------|--------------|
a[-3------3-2-|-0------0---|------------|----------0-2-|
E[------------|----------3-|-1------1-2-|-3------3-----|

       C          Am             Fm           G7
g[------------|------------|------------|--------------|
d[------------|------------|------------|--------------|
a[-3------3-2-|-0------0---|------------|----------0-2-|
E[------------|----------3-|-1------1-2-|-3------3-----|


       C          Am             Fm           G7
g[------------|------------|------------|--------------|
d[------------|------------|------------|--------------|
a[-3------3-2-|-0------0---|------------|----------0-2-|
E[------------|----------3-|-1------1-2-|-3------3-----|


       C          Am             Fm           G7
g[------------|------------|------------|--------------|
d[------------|------------|------------|--------------|
a[-3------3-2-|-0------0---|------------|----------0-2-|
E[------------|----------3-|-1------1-2-|-3------3-----|

       C          Am             Fm           G7
g[------------|------------|------------|--------------|
d[------------|------------|------------|--------------|
a[-3------3-2-|-0------0---|------------|----------0-2-|
E[------------|----------3-|-1------1-2-|-3------3-----|

       C          Am             Fm           G7
g[------------|------------|------------|--------------|
d[------------|------------|------------|--------------|
a[-3------3-2-|-0------0---|------------|----------0-2-|
E[------------|----------3-|-1------1-2-|-3------3-----|

       C          Am             Fm           G7
g[------------|------------|------------|--------------|
d[------------|------------|------------|--------------|
a[-3------3-2-|-0------0---|------------|----------0-2-|
E[------------|----------3-|-1------1-2-|-3------3-----|
   

       C          Am             Fm           G7
g[------------|------------|------------|--------------|
d[------------|------------|------------|--------------|
a[-3------3-2-|-0------0---|------------|----------0-2-|
E[------------|----------3-|-1------1-2-|-3------3-----|


       C          Am             Fm           G7
g[------------|------------|------------|--------------|
d[------------|------------|------------|--------------|
a[-3------3-2-|-0------0---|------------|----------0-2-|
E[------------|----------3-|-1------1-2-|-3------3-----|


      F              %             Fm            %
g[-------------|-------------|-------------|-------------|
d[-3----3-3-3--|-3----3-3-3--|-------------|-------------|
a[-------------|-------------|-------------|-------------|
E[-------------|-------------|-4----4-4-4--|-4----4-4-4--|

       C              %             %              C7
g[-------------|-------------|--------------|--------------|
d[-------------|-------------|--------------|----------0-2-|
a[-3----3-3-3--|-3----3-3-3--|-3-3-3--3-3-3-|-3-3-3--3-----|
E[-------------|-------------|--------------|--------------|


      F              %             Fm            %
g[-------------|-------------|-------------|-------------|
d[-3----3-3-3--|-3----3-3-3--|-------------|-------------|
a[-------------|-------------|-------------|-------------|
E[-------------|-------------|-4----4-4-4--|-4----4-4-4--|


       G               Bb             G              G7
g[--------------|--------------|--------------|--------------|
d[--------------|--------------|--------------|--------------|
a[--------------|--------------|--------------|----------0-2-|
E[-3-3-3--3-3-3-|-6-6-6--6-6-6-|-3-3-3--3-3-3-|-3-3-3--3-----|


       C          Am             Fm           G7
g[------------|------------|------------|--------------|
d[------------|------------|------------|--------------|
a[-3------3-2-|-0------0---|------------|----------0-2-|
E[------------|----------3-|-1------1-2-|-3------3-----|
 

       C          Am             Fm           G7
g[------------|------------|------------|--------------|
d[------------|------------|------------|--------------|
a[-3------3-2-|-0------0---|------------|----------0-2-|
E[------------|----------3-|-1------1-2-|-3------3-----|


       C          Am             Fm           G
g[------------|------------|------------|--------------|
d[------------|------------|------------|--------------|
a[-3------3-2-|-0------0---|------------|--------------|
E[------------|----------3-|-1------1-2-|--------------|


       C           C             C
g[-----------|------------|-------------|---------------|
d[-----------|------------|-------------|---------------|
a[-----------|------------|-3-----------|---------------|
E[-----------|------------|-------------|---------------|


And that's it!
Tap to rate this tab
# A B C D E F G H I J K L M N O P Q R S T U V W X Y Z