Song name
# A B C D E F G H I J K L M N O P Q R S T U V W X Y Z

Santo And Johnny - Sleepwalk tab

  Santo & Johnny - Sleepwalk
  tab by aldo alain


e |--------------------------------------------------------------------|
b |-----------------------/11-11--11-11\-------------------------------|
f#|---/11-11--11-11-11\---/11-11--11-11\----4-4-4-4--4-4/6-------------|
d |---/11-11--11-11-11\---------------------4-4-4-4--4-4/6-------------|
a |--------------------------------------------------------------------|
e |-9-------------------6-----------------2----------------------------|

    s  s  s              s        s  s           s 
|-15/17/24\20----------------------------------------------------------|
|-------------------------------13/14\9-9--7-9-9/10-9------------------|
|----------------4-4--4-4/6--------------------------------------------|
|----------------4-4--4-4/6--------------------------------------------|
|----------------------------------------------------------------------|
|----------------------------------------------------------------------|

       s  s              s          s                   s 
|----------------------------------------------------------------------|
|----13/14\9--9-9---7-9-9/10-9---7-7/9--6h9-6--------------------------|
|-12------------------------------------------7----7-7-9/11-11-11-11---|
|-----------------------------------------------8------9/11-11---------|
|----------------------------------------------------------------------|
|----------------------------------------------------------------------|

    s  s  s              s        s  s           s 
|-15/17/24\20----------------------------------------------------------|
|-------------------------------13/14\9-9--7-9-9/10-9------------------|
|----------------4-4--4-4/6--------------------------------------------|
|----------------4-4--4-4/6--------------------------------------------|
|----------------------------------------------------------------------|
|----------------------------------------------------------------------|

       s  s              s          s                   s
|----------------------------------------------------------------------|
|----13/14\9--9-9---7-9-9/10-9---7-7/9--6h9-6--------------------------|
|-12------------------------------------------7----7-7-9/11-11-11-11---|
|-----------------------------------------------8------9/11-11-------11|
|----------------------------------------------------------------------|
|----------------------------------------------------------------------|

           s       s      s     s         s         s  s     s
|----------------------------------------------------------------------|
|-----------------------17/18-17/18--16-14\10-10--17/18\16-16\-9--9----|
|----------/11-----/16-----------------------------------------11-11---|
|-8-8--8-8-------11----------------------------------------------------|
|-9-9--9-9-------------------------------------------------------------|
|----------------------------------------------------------------------|

   s  s            s        s     s                   s    s         s
|----------------------------------------------------------------------|
|-9/11\10-6-6h9~----------17/18-16\14-----14--------17/18-16\14-14-14\9|
|------------------/16-16--------------16----15-15--------------------9|
|----------------11----------------------------------------------------|
|----------------------------------------------------------------------|
|----------------------------------------------------------------------|

           s        s       s  s                           s  s
|----------------------------------------------------------------------|
|-9--9-9--9/12-12-12\9-9--13/14\9-9-9--7--9--9/10--9-----13/14\9-9-----|
|-9--9-9--9/12-12-12\9-9---------------9-11-11/12-11--12---------------|
|----------------------------------------------------------------------|
|----------------------------------------------------------------------|
|----------------------------------------------------------------------|

                    s                s      s              s  s  s
|--------------------------------------------------------15/17/24/20~~-|
|-7--9--9/10--9--7-7/9--6h9-6------------------------------------------|
|-9-11-11/12-11---------------7-------------/11-11-10-9----------------|
|-------------------------------8-8--/11-11----------------------------|
|----------------------------------------------------------------------|
|----------------------------------------------------------------------|
Tap to rate this tab
 
# A B C D E F G H I J K L M N O P Q R S T U V W X Y Z