Song name
# A B C D E F G H I J K L M N O P Q R S T U V W X Y Z

Santo Johnny - Love Is Blue tab

    Love is Blue
  (Santo & Johnny)
___________________________________________________________________________________________
tabbed by masho90

   Am            Am            Am            Am
e|-------------|-------------|-------------|-------------|
B|-------------|-------------|-------------|-------------|
G|-------------|-------------|-------------|-------------|
D|-------------|-------------|-------------|-------------|
A|-------------|-------------|-------------|-------------|
E|-------------|-------------|-------------|-------------|
   '  '  '  '    '  '  '  '    '  '  '  '    '  '  '  '
   Am        C         G         C       Am        C               G          C
e|-------------------|-----------------|-------------------------|------------------|    |
B|-15b(17)r--15---13-|-12\10--10-------|-10--13-12-12b(13)r12-10-|----10------------|    |
G|-------------------|-----------12----|-------------------------|-12------12-9-----|    |
D|-------------------|-----------------|-------------------------|------------------|    |
A|-------------------|-----------------|-------------------------|------------------|    |
E|-------------------|-----------------|-------------------------|------------------|    |
   '    '    '  '      '    '    '  '    '   '     '       '       '     '    '  '       | (x2)
   Am        C         G         C       Am        C               E7         Am         |
e|-------------------|-----------------|-------------------------|------------------|    |
B|-15b(17)r--15---13-|-12\10--10-------|-10--13-12-12b(13)r12-10-|------------10----|    |
G|-------------------|-----------12----|-------------------------|-13-11---13-------|    |
D|-------------------|-----------------|-------------------------|------------------|    |
A|-------------------|-----------------|-------------------------|------------------|    |
E|-------------------|-----------------|-------------------------|------------------|    |
   '    '    '  '      '    '    '  '    '   '     '       '       '     '    '  '       |
   Am            Am                                                                      |
e|-------------|-------|                                                                 |
B|-------------|-------|                                                                 |
G|-------------|-------|                                                                 |
D|-------------|-------|                                                                 |
A|-------------|-------|                                                                 |
E|-------------|-------|                                                                 |
   '  '  '  '    '  '  
   A        D            E7       A           F#m     D              E7
e|---------------------|--------------------|----------------------|-------------|
B|-14----14-14/15---15-|-15/17-------14-----|---------15b(17)-(17)r|-15----------|
G|---------------------|----------------14--|----------------------|-------------|
D|---------------------|--------------------|-16---16--------------|-------------|
A|---------------------|--------------------|----------------------|-------------|
E|---------------------|--------------------|----------------------|-------------|
   '   '    '     '      '     '  '     '     '  '    '      '       '  '  '  '
   A        E7           F#m              D     E7           A
e|---------------------|----------------|------------------|-------------|
B|-14----14-15/17---17-|-------------14-|-15---------------|-------------|
G|---------------------|-16-------16----|-------16---13/14-|-14----------|
D|---------------------|----------------|------------------|-------------|
A|---------------------|----------------|------------------|-------------|
E|---------------------|----------------|------------------|-------------|
   '   '    '     '      '  '  '  '       '  '  '    '       '  '  '  '
   Am            Am
e|-------------|-------------|
B|-------------|-------------|
G|-------------|-------------|
D|-------------|-------------|
A|-------------|-------------|
E|-------------|-------------|
   '  '  '  '    '  '  '  '
   Am        C         G             C       Am        C               G            C
e|-------------------|---------------------|-------------------------|--------------------|
B|-15b(17)r--15---13-|-12-\13-10-/12-------|-10--13-12-12b(13)r12-10-|--------------------|
G|-------------------|---------------12----|-------------------------|-12b(10)r-12--9-----|
D|-------------------|---------------------|-------------------------|--------------------|
A|-------------------|---------------------|-------------------------|--------------------|
E|-------------------|---------------------|-------------------------|--------------------|
   '    '    '  '      '      '      '  '    '    '   '     '          '        '   '  '
   Am        C         G             C       Am        C               E7         Am
e|-------------------|---------------------|-------------------------|------------------|
B|-15b(17)r--15---13-|-12-\13-10-/12-------|-10--13-12-12b(13)r12-10-|------------10----|
G|-------------------|---------------12----|-------------------------|-13-11---13-------|
D|-------------------|---------------------|-------------------------|------------------|
A|-------------------|---------------------|-------------------------|------------------|
E|-------------------|---------------------|-------------------------|------------------|
   '    '    '  '      '      '      '  '    '   '     '       '       '     '    '  ' 
   Am            Am
e|-------------|-------|
B|-------------|-------|
G|-------------|-------|
D|-------------|-------|
A|-------------|-------|
E|-------------|-------|
   '  '  '  '    '  '  
   A        D            E7       A           F#m     D              E7
e|---------------------|--------------------|----------------------|-------------|
B|-14----14-14/15---15-|-15/17-------14-----|---------15b(17)-(17)r|-15----------|
G|---------------------|----------------14--|----------------------|-------------|
D|---------------------|--------------------|-16---16--------------|-------------|
A|---------------------|--------------------|----------------------|-------------|
E|---------------------|--------------------|----------------------|-------------|
   '   '    '     '      '     '  '     '     '  '    '      '       '  '  '  '
   A        E7           F#m              D     E7           A
e|---------------------|----------------|------------------|-------------|
B|-14----14-15/17---17-|-------------14-|-15---------------|-------------|
G|---------------------|-16-------16----|-------16---13/14-|-14----------|
D|---------------------|----------------|------------------|-------------|
A|---------------------|----------------|------------------|-------------|
E|---------------------|----------------|------------------|-------------|
   '   '    '     '      '  '  '  '       '  '  '    '       '  '  '  '
   Am            Am
e|-------------|-------------|
B|-------------|-------------|
G|-------------|-------------|
D|-------------|-------------|
A|-------------|-------------|
E|-------------|-------------|
   '  '  '  '    '  '  '  '
   Am        C         G         C       Am        C               G          C
e|-------------------|-----------------|-------------------------|------------------|
B|-15b(17)r--15---13-|-12\10--10-------|-10--13-12-12b(13)r12-10-|----10------------|
G|-------------------|-----------12----|-------------------------|-12------12-9-----|
D|-------------------|-----------------|-------------------------|------------------|
A|-------------------|-----------------|-------------------------|------------------|
E|-------------------|-----------------|-------------------------|------------------|
   '    '    '  '      '    '    '  '    '   '     '       '       '     '    '  '
   Am        C         G         C       Am        C               E7
e|-------------------|-----------------|-------------------------|------------------|
B|-15b(17)r--15---13-|-12\10--10-------|-10--13-12-12b(13)r12-10-|------------------|
G|-------------------|-----------12----|-------------------------|-13-11---13-------|
D|-------------------|-----------------|-------------------------|------------------|
A|-------------------|-----------------|-------------------------|------------------|
E|-------------------|-----------------|-------------------------|------------------|
   '    '    '  '      '    '    '  '    '   '     '       '       '     '    '  ' 
   E7            Am             Am               Am
e|-------------|-------------||--17---------17-|-17---------17-||
B|-------------|-10-----(10)/||*---------------|--------------*||
G|-------------|-------------||----------------|---------------||
D|-------------|-------------||----------------|---------------||
A|-------------|-------------||*---------------|--------------*||
E|-------------|-------------||----------------|---------------||
   '  '  '  '    '  '  '  '     '  '  '  '       '  '  '  '



___________________________________________________________________________________________
Tap to rate this tab
 
# A B C D E F G H I J K L M N O P Q R S T U V W X Y Z