Song name
# A B C D E F G H I J K L M N O P Q R S T U V W X Y Z

Santogold - Les Artistes tab

Intro
--------------------------------------------------------------|
--------------------------------------------------------------|
--------------------------------------------------------------|
---------11-11-11------------9-9-9----------------------------|
---9-9-9----------9-9--7-7-7-------7-7------------------------|
--------------------------------------------------------------|
repeat lots

--------------------------------------------------------------|
---14---------14--14------------------------------------------|
--------------------------------------------------------------|
--------------------------------------------------------------|
--------------------------------------------------------------|
--------------------------------------------------------------|
this is the note you here in the verse. has an effect on it.
sounds alright if you mute and bend or pinch.

Bass plays F# to E

Chorus
---------------------------------------------------------------------|
---------------------------------------------------------------------|
--------------------9-9-9-9-9-9--x-----------------------------------|
---7-7-7-7-7-7--x---9-9-9-9-9-9--x--4-4-4-4-4-4--x--4-4-4-4-4-4--x---|
---7-7-7-7-7-7--x---7-7-7-7-7-7--x--4-4-4-4-4-4--x--4-4-4-4-4-4--x---|
---5-5-5-5-5-5--x-------------------2-2-2-2-2-2--x--2-2-2-2-2-2--x---|

---------------------------------------------------------------------|
---------------------------------------------------------------------|
--------------------9-9-9-9-9-9--x------------------6-6-6-6-6-6-6-6--|
---7-7-7-7-7-7--x---9-9-9-9-9-9--x--4-4-4-4-4-4--x--6-6-6-6-6-6-6-6--|
---7-7-7-7-7-7--x---7-7-7-7-7-7--x--4-4-4-4-4-4--x--4-4-4-4-4-4-4-4--|
---5-5-5-5-5-5--x-------------------2-2-2-2-2-2--x-------------------|

--------------------------------------------------------------|
---14--12-----------------------------------------------------|
-----------14-------------------------------------------------|
--------------------------------------------------------------|
--------------------------------------------------------------|
--------------------------------------------------------------|
2nd guitar notes heard at end of each line in the chorus

Interlude
---------------------------------------------------------------|
-----------------------12-14-----------------------------------|
-----14-14-14-14-14-14-14----14-14-14-14-14-14-14-14-----------|
---------------------------------------------------------------|
---------------------------------------------------------------|
---------------------------------------------------------------|
palm mute these notes


great song

please rate/comment

cheers!

http://www.myspace.com/santogold
Rolling Stone 2008 top 10 artists to watch this year
Santogold debut album will be released in the US, April 29th
Check out this song on myspace
Tap to rate this tab
# A B C D E F G H I J K L M N O P Q R S T U V W X Y Z