Guitaretab - guitar tabs
Song name
# A B C D E F G H I J K L M N O P Q R S T U V W X Y Z

Santogold - My Drive Thru tab

Hello, this is my first tab, the song is called My Drive Thru, by Julian Casablancas, 
& N.E.R.D. I think it's 100% Correct

Author:Julian Casablancas, Santogold & N.E.R.D
Song: My Drive Thru
Tabbed by: agux987

Standard Tunning (EADGBe)

Riff 1
e----------------|
B----------------|
G----------------|
D---6-4----6-6-6-|
A--------6-------|
E----------------|
[ Tab from: http://www.guitaretab.com/s/santogold/117848.html ]
Riff 2
e----------------|
B----------------|
G----------------|
D----4-6---6-6-6-|
A--6-------------|
E----------------|

Riff 3
e----------------|
B----------------|
G----------------|
D--9-7---9-9-9---|
A------9---------|
E----------------|

Riff 1 X4
Riff 2 X4
Riff 3 X4

Continue playing Riff 1 X4 and then change to Riff 2 X4 throughout the song.(Listen to 
song for exact timing)

Enjoy The Tab!
Any Corrections: torres_agustin_182@hotmail.com
Related for My Drive Thru tab
Advertisement will be closed in 10 seconds