Guitaretab - guitar tabs
Song name
# A B C D E F G H I J K L M N O P Q R S T U V W X Y Z

Saosin - Keep Secrets tab

-------------------------------------------------------------------------------
			     KEEP SECRETS - Saosin
-------------------------------------------------------------------------------
Tabbed by: BlackRoseDying_

Tuning: DADGBE


  Lead guitar:

e|---------------------------------------------------------------------------|
B|-----11--11--11--11--13--13--13-------11--11--11-------10--10--10----------|
G|--14~--14--14--14--14--14--1414---12~--12--1212---12~--12--12--12--------|
D|---------------------------------------------------------------------------|
A|---------------------------------------------------------------------------|
D|---------------------------------------------------------------------------|
[ Tab from: http://www.guitaretab.com/s/saosin/186797.html ]
e|-----10--10--10--10--10--10--10--------------------------------------------|
B|---------------------------------------------------------------------------|
G|--10~--10--10--10--10--10--10--10---7~--7-7-7-7-7-7-7-7/10-10-10-10p7---x2-|
D|---------------------------------------------------------------------------|
A|---------------------------------------------------------------------------|
D|---------------------------------------------------------------------------|


  Rhythm guitar:

e|---------------------------------------------------------------------------|
B|---------------------------------------------------------------------------|
G|-------------------33333333------------------------------------------------|
D|--5555555555555555-33333333-33333333-11111111-0----x2----------------------|
A|--5555555555555555-11111111-33333333-11111111-0----------------------------|
D|--5555555555555555----------33333333-11111111-0----------------------------|



| /  slide up
| \  slide down
| h  hammer-on
| p  pull-off
| ~  vibrato
| +  harmonic
| x  Mute note
===============================================================================

Related for Keep Secrets tab