Song name
# A B C D E F G H I J K L M N O P Q R S T U V W X Y Z

Saosin - Love Maker Acoustic tab

This is just guitar 1, which is the main rhythm of the song.  The second guitar is not
here but somebody should and i might later, it is much easier.  The song is played in
C.  listen to it a few times to get the feel of the picking, its not too bad.  He 
the picking a bit throughout the song but this is the just of it.  Enjoy and Grabyourax!!

 CGCFAD Tuning


   Run away and play your games       Hide real well so I can't find you
|------------------------------------------------------------------------|
|----------5-------5-----5-----------------------5---------------5-------|
|----4---4---4---4---4-----4---4-------0----4--4---4---0---4---4---4---4-|
|--2---2-------2-------2-----2------------2---2------2-------2-----------|
|--------------------------------------------------------3-----------3---|
|------------------------------------------------------------------------|


I will wait for summer to come then laugh as the trees burn down around you
|------------------------------------------------------------------------|
|----------5-------5-----5-----------------------5---------------5-------|
|----4---4---4---4---4-----4---4-------0----4--4---4---0---4---4---4---4-|
|--2---2-------2-------2-----2------------2---2------2-------2-----------|
|--------------------------------------------------------3-----------3---|
|------------------------------------------------------------------------|

          your body                        was just a test for me
|------------------------------------------------------------------------|
|----------5-------5-----5-----------------------5---------------5-------|
|----4---4---4---4---4-----4---4-------0----4--4---4---0---4---4---4---4-|
|--2---2-------2-------2-----2------------2---2------2-------2-----------|
|--------------------------------------------------------3-----------3---|
|------------------------------------------------------------------------|

[Pre-Chorus]

  and if i run as fast as i can    the thought of your memory
|------------------------------------------------------------------|
|----------5---------------5---------------5---------------5-------|
|----4---4---4---4---4---4---4---4---4---4---4---4---4---4---4---4-|
|------2-------2-------2-------2---2---2-------2---2---2-------2---|
|--3---------------3-----------------------------------------------|
|------------------------------------------------------------------|

 will catch up with me          will catch up with me
|-----------------------------------------------------------------|
|----------5-------5-----5-------------------------5--------------|
|----4---4---4---4---4-----4---------------4----------------------|
|------2-------2-------2-----2------2-----------------------------|
|--3---------------------------3----------------------------------|
|-----------------------------------------------------------------|

[Chorus]

I'm always late with my wordssssssssssssssss (We tried so hard -- 2X)
|------------------------------------------------------------------------|
|----------5-------5-----5-----------------5-------5-----5----------5----|
|----4---4---4---4---4-----4---4-----4---4---4---4---4-----4------4---4--|
|--2---2-------2-------2-----2---------2-------2-------2-----2--0--------|
|----------------------------------3-------------------------------------|
|------------------------------------------------------------------------|


I should have told you  but I never really cared (you always mislead me)
|------------------------------------------------------------------------|
|----------5-------5-----5-----------------5-------5-----5----------5----|
|----4---4---4---4---4-----4---4-----4---4---4---4---4-----4------4---4--|
|--2---2-------2-------2-----2---------2-------2-------2-----2--0--------|
|----------------------------------3-------------------------------------|
|------------------------------------------------------------------------|


I'm always late with my wordssssssssssssssss (We tried so hard -- 2X)
|------------------------------------------------------------------------|
|----------5-------5-----5-----------------5-------5-----5----------5----|
|----4---4---4---4---4-----4---4-----4---4---4---4---4-----4------4---4--|
|--2---2-------2-------2-----2---------2-------2-------2-----2--0--------|
|----------------------------------3-------------------------------------|
|------------------------------------------------------------------------|


I should have told you  but I never really cared (you always mislead me)
|------------------------------------------------------------------------|
|----------5-------5-----5-----------------5-------5-----5----------5----|
|----4---4---4---4---4-----4---4-----4---4---4---4---4-----4------4---4--|
|--2---2-------2-------2-----2---------2-------2-------2-----2--0--------|
|----------------------------------3-------------------------------------|
|------------------------------------------------------------------------|

You always got the worst!!

[Then everything is repeated the same exact way back to the pre-chorus and chorus until 
Break]


[Breakdown]

when summer passes, I'll let go
|-------------------------------------------------------------------|
|----5-----5-----5-----5-----5--------5-----5-----5-----5-----5-----|
|------4-----4-----4-----4-----4--------4-----4-----4-----4-----4---|
|--------2-----2-----2-----2-----2--2-----2-----2-----2-----2-----2-|
|--3----------------------------------------------------------------|
|-------------------------------------------------------------------|

and if you don't feel then just take yourself out [a weird picking switch]
|----------------------------------------------------------------------------------------------|
|----5-----5-----5-----5-----5--------5-----5-------------5-------5----5----5-----5-----5------|
|------4-----4-----4-----4-----4--------4-----4-----4---4---4-------4----4----4-----4-----4----|
|--------2-----2-----2-----2-----2--2-----2-----2-----2-------2-------2----2----2-----2-----2--|
|--3----------------------------------------------3-------------3------------------------------|
|----------------------------------------------------------------------------------------------|


and when summer passes let me know

|-------------------------------------------------------------------|
|----5-----5-----5-----5-----5--------5-----5-----5-----5-----5-----|
|------4-----4-----4-----4-----4--------4-----4-----4-----4-----4---|
|--------2-----2-----2-----2-----2--2-----2-----2-----2-----2-----2-|
|--3----------------------------------------------------------------|
|-------------------------------------------------------------------|

  so I can find meaning to live
|----------------------------------------------------------------------------------------------|
|----5-----5-----5-----5-----5--------5-----5-------------5-------5----5----5-----5-----5------|
|------4-----4-----4-----4-----4--------4-----4-----4---4---4-------4----4----4-----4-----4----|
|--------2-----2-----2-----2-----2--2-----2-----2-----2-------2-------2----2----2-----2-----2--|
|--3----------------------------------------------3-------------3------------------------------|
|----------------------------------------------------------------------------------------------|


[then back to the chorus]


Not too bad!! once you get the pattern down it is pretty repetitive!!
Tap to rate this tab
# A B C D E F G H I J K L M N O P Q R S T U V W X Y Z