Song name
# A B C D E F G H I J K L M N O P Q R S T U V W X Y Z

Saosin - On My Own tab

                          Soasin
                        On My Own
Verse
D---------15-|
A----14------|X8
F-------13---|
C------------| 
G------------|
C------------|

Pre-Chorus
D------0---------------------|
A------5-X7------------------|
F----------------------------|
C-7----------7----3----5-----|X2
G-7-X7-------7-X2-3-X7-5-X7--|
C-7----------7----3----5-----|

Chorus
D----------------------------|
A----------------------------|
F----------------------------|
C-3-----7-----3-----5-X6-5---|X2end 7
G-3-X12-7-X12-3-X12-3----5-X3|      7
C-3-----7-----3----------5---|      7

Verse 2
D----------0-15-12----------0-15-12----------|
A-0-12-13-----------0-12-13----------12-13-12|
F--------------------------------------------|?
C--------------------------------------------|
G--------------------------------------------|
C--------------------------------------------|

Back to Pre-chorus and Chorus

Bridge Prt1

D-------0----------0----------0-----------0-----------0----------------|
A-------5-X7-------5-x7-------5-X7--------5-X7--------5-x7-------------|
F----------------------------------------------------------------------|
C-7-----------7----------7----------5-----------5-----------5----------|X2
G-7-X7--------7-X2-------7-X2-------5-X7--------5-x2--------5-x2-------|
C-7-----------7----------7----------5-----------5-----------5----------|

Bridge Prt2

D--------------------------------|  |-------------------------------------|  
A--------------------------------|  |-------------------------------------|  
F-----10~----------4~-------2----|  |------10~--------4~-----2------------|  
C-----------------------------0--|  |---------------------------0---------|  
G--------------------------------|  |------------------------------2------|  
C-7~---------5~---------3--------|  |-5/7-------7\3-------3------------5/7|

D---------------|
A---------------|
F---------------|
G---------------|
C-7----3----5---| 
G-7-X?-3-x7-5-x7|
C-7----3----5---|

Outro
 
D------0-----------0---|  |------0----|
A------5-x7--------5x2-|  |------8-X7-|
F----------------------|  |-----------|
C-7----------7---------|x2|-7---------|
G-7-7x-------7-2x------|  |-7x7-------|
C-7----------7---------|  |-7---------|
Tap to rate this tab
# A B C D E F G H I J K L M N O P Q R S T U V W X Y Z