Song name
# A B C D E F G H I J K L M N O P Q R S T U V W X Y Z

Saosin - Say Goodbye tab

-------------------------------------------------------------------------------
			    Say GoodBye-Saosin
-------------------------------------------------------------------------------
Tabbed by:NextBruceLee
Email:jaldous3@gmail.com

Tuning:Drop D

                                  Intro
                                Guitar 1
e|---------------------------------------------------------------------------|
B|---------------------------------------------------------------------------|
G|--6-------4--------------------------6-6-6-----6---6--99-------------------|
D|--6-x16---4-x16---2---------4-4-4----6-6-6---4-6-4-6--99---x2--------------|
A|--4-------2-------2--x16----4-4-4----4-4-4---4-4-4-4--77-------------------|
E|------------------2---------4-4-4------------4---4-------------------------|

                                Guitar 2
e|---------------------------------------------------------------------------|
B|---------------------------------------------------------------------------|
G|--6-------11-----8-9------4-----6------------666--6--8-9-9-----------------|
D|--6-x16---11-x4--8-9-x10--4-x7--6-x10--------------------------------------|
A|--4-------9------6-7------2-----4------4-4-4-----4--4----------------------|
E|---------------------------------------------------------------------------|

                                  Verse
e|---------------------------------------------------------------------------|
B|---------------------------------------------------------------------------|
G|-------9-8-6------9-8-6-4----9-8-6-6/8-------------------------------------|
D|--------------------------------------------x2-----------------------------|
A|---4-----------4----------4------------------------------------------------|
E|---------------------------------------------------------------------------|

                                  Chorus
                                Guitar 1
e|---------------------------------------------------------------------------|
B|---------------------------------------------------------------------------|
G|--6-------4--------------------------6-6-6-----6---6--99-------------------|
D|--6-x16---4-x16---2---------4-4-4----6-6-6---4-6-4-6--99---x2--------------|
A|--4-------2-------2--x16----4-4-4----4-4-4---4-4-4-4--77-------------------|
E|------------------2---------4-4-4------------4---4-------------------------|

                                Guitar 2
e|---------------------------------------------------------------------------|
B|---------------------------------------------------------------------------|
G|--6-------11-----8-9------4-----6------------666--6--8-9-9-----------------|
D|--6-x16---11-x4--8-9-x10--4-x7--6-x10--------------------------------------|
A|--4-------9------6-7------2-----4------4-4-4-----4--4----------------------|
E|---------------------------------------------------------------------------|

                                  Verse
e|---------------------------------------------------------------------------|
B|---------------------------------------------------------------------------|
G|-------9-8-6------9-8-6-4----9-8-6-6/8-------------------------------------|
D|--------------------------------------------x2-----------------------------|
A|---4-----------4----------4------------------------------------------------|
E|---------------------------------------------------------------------------|


                               Chorus
                                Guitar 1
e|---------------------------------------------------------------------------|
B|---------------------------------------------------------------------------|
G|--6-------4--------------------------6-6-6-----6---6--99-------------------|
D|--6-x16---4-x16---2---------4-4-4----6-6-6---4-6-4-6--99---x2--------------|
A|--4-------2-------2--x16----4-4-4----4-4-4---4-4-4-4--77-------------------|
E|------------------2---------4-4-4------------4---4-------------------------|

                                Guitar 2
e|---------------------------------------------------------------------------|
B|---------------------------------------------------------------------------|
G|--6-------11-----8-9------4-----6------------666--6--8-9-9-----------------|
D|--6-x16---11-x4--8-9-x10--4-x7--6-x10--------------------------------------|
A|--4-------9------6-7------2-----4------4-4-4-----4--4----------------------|
E|---------------------------------------------------------------------------|

                              Bridge
                               Guitar 1
e|-------------------------------------------------------------------------|
B|-------------------------------------------------------------------------|
G|-------------------------------------------------------------------------|
D|--7------9-------6--------9----6-----------------------------------------|
A|--7-x16--9-x16---6--x14---9-x4-6-x16-------x4----------------------------|
E|--7------9-------4--------7----4-----------------------------------------|

                      Sorry cant figure out Guitar 2
e|-------------------------------------------------------------------------|
B|-------------------------------------------------------------------------|
G|-------------------------------------------------------------------------|
D|-------------------------------------------------------------------------|
A|-------------------------------------------------------------------------|
E|-------------------------------------------------------------------------|

                                  Outro
                             Guitar 1
e|---------------------------------------------------------------------------|
B|---------------------------------------------------------------------------|
G|--6-------4--------------------------6-6-6-----6---6--99-------------------|
D|--6-x16---4-x16---2---------4-4-4----6-6-6---4-6-4-6--99---x2--------------|
A|--4-------2-------2--x16----4-4-4----4-4-4---4-4-4-4--77-------------------|
E|------------------2---------4-4-4------------4---4-------------------------|

                                Guitar 2
e|---------------------------------------------------------------------------|
B|---------------------------------------------------------------------------|
G|--6-------11-----8-9------4-----6------------666--6--8-9-9/----------------|
D|--6-x16---11-x4--8-9-x10--4-x7--6-x10--------------------------------------|
A|--4-------9------6-7------2-----4------4-4-4-----4--4----------------------|
E|---------------------------------------------------------------------------|
                                 x2
thanks for lookin at my tab for corrections email me at my email See ya
Tap to rate this tab
# A B C D E F G H I J K L M N O P Q R S T U V W X Y Z