Song name
# A B C D E F G H I J K L M N O P Q R S T U V W X Y Z

Saosin - Penelope Acoustic tab

-----------------------------------------------------------------------------
			     PENELOPE - Saosin
-----------------------------------------------------------------------------
Tabbed by: awx
Email: a_wx@live.ca

Tuning: Standard

INTRO
e|---------------------------------------------------------------------------|
B|---------------------------------------------------------------------------|
G|------------------7-----------------------------7--------------------------|
D|----------10---------10-----10~-----------10------10----10-----10-----7----|
A|--------8----8----------8---------------8----8-------8------8------8-----8-|
E|--8h10-----------------------------8h10------------------------------------|

e|--------|
B|--------|
G|--------|
D|-10-----|
A|-----8--|
E|--------|

VERSE | "Oh Penelope..." | Play 4x
e|-------------------------------------------------|
B|-------------------------------------------------|
G|---------------7--------7--------7--------7------|
D|---------10------10-------10-------10-------10---|
A|-------8----8-------8---------8--------8-------8-|
E|--8h10-------------------------------------------|

Pre-Chorus
e|-------------|------------|  |--------|----------|
B|-------------|------------|  |--------|-12-------|
G|-------------|--10--------|  |--------|---11-----|
D|----------7--|-----7--(4x)|  |--------|------(4x)|
A|--------8----|------------|  |------8-|----------|
E|--8h10-------|------------|  |-8h10---|----------|

e|-------------|-----------|
B|-------------|-----------|
G|-------------|--10-------|
D|----------7--|-----7-(4x)|2x
A|--------8----|-----------|
E|--8h10-------|-----------|

Then you play the verse over and over again until the last few measures of the song, 
you play:

e|--------------------------------|
B|--------------------------------|
G|------------------7-------------|
D|----------10---------10-----10~-|
A|--------8----8----------8-------|
E|--8h10--------------------------|

This song is really repetitive, especially this tab because I only
tabbed the picking. You can add variations if it's too monotonous.
If anyone has ACCURATE chords, can they please email them to me? :)
Tap to rate this tab
 
# A B C D E F G H I J K L M N O P Q R S T U V W X Y Z