Song name
# A B C D E F G H I J K L M N O P Q R S T U V W X Y Z

Saosin - Time After Time tab

Artist: Saosin
Album: EP (cover from original artist, Cyndi Lauper)
Song: Time After Time
Tuning: DGCFAD (full-step down)
Tabbed by: Just


After months of requests and procrastination, fortunate for you guys.. I got sick! 
So I'm stuck at home, so why not tab this out for you guys? 
Sorry it took me so long!
I composed the chorus and outro part myself personally, to fit the song. It sounds 
pretty good in my opinion and matches!  
(find my cover on Youtube! My account name is OhMyTofu :] ) 

LEAD Guitar

Intro;

D|-x-x-x-x-|
A|-x-x-x-x-|
F|-x-x-x-x-|
C|-x-x-x-x-|
G|-x-x-x-x-|
D|-x-x-x-x-|

D|-------------------------------------|
A|-----------3-----------------3-------|
F|-----2-------2--------2--------2-----|
C|---0-----0-----0----2-----2------0---|
G|------------------0-----0------------|
D|-3-----3-----------------------------| \
                                          }Play twice
D|-------------------------------------| /
G|-----------3---------------3---------|
C|-----2-------2-------2-------2-------|
F|---0-----0-----0---0-----0-----0-----|
A|-------------------------------------|
D|-2-----2---------3-----3-------------|


Verse; "Lying in my bed..."
D|----------------|
A|-----3------3---|
F|---2------2---2-| repeat until
C|-2-----0--------|
G|----------------|
D|----------------|


Pre-chorus; (but doesn't go into chorus until 2nd pre-chorus) 
"Flashbacks, to warm nights..."
D|------------------------------|
A|-----3-----3-------3-----3----|
F|---2-----2---2---2-----2---2--|
C|------------------------------|
G|-------0----------------------|
D|-3-------------2-----3--------| 
                                  
D|---------------------0--------| 
A|-----3-----3-------3----3---3-|
F|---2-----2---2---2--------2---|
C|------------------------------|
G|-------0----------------------|
D|-3-------------3--------------|


D|------------------------------|
A|-----3-----3-------3-----3----|
F|---2-----2---2---2-----2---2--|
C|------------------------------|
G|-------0----------------------|
D|-3-------------2-----3--------| 
                                  
D|---------------| 
A|-----3-----3---|
F|---2-----2---2-|
C|---------------|
G|-------0-------|
D|-3-------------|


Verse; "Sometimes you picture me..."
D|----------------|
A|-----3------3---|
F|---2------2---2-|
C|-2-----0--------|
G|----------------|
D|----------------|


Pre-chorus; "And you say 'go slow'..."
D|------------------------------|
A|-----3-----3-------3-----3----|
F|---2-----2---2---2-----2---2--|
C|------------------------------|
G|-------0----------------------|
D|-3-------------2-----3--------| 
                                  
D|---------------------0--------| 
A|-----3-----3-------3----3---3-|
F|---2-----2---2---2--------2---|
C|------------------------------|
G|-------0----------------------|
D|-3-------------3--------------|


D|------------------------------|
A|-----3-----3-------3-----3----|
F|---2-----2---2---2-----2---2--|
C|------------------------------|
G|-------0----------------------|
D|-3-------------2-----3--------| 
                                  
D|---------------| 
A|-----3-----3---|
F|---2-----2---2-|
C|---------------|
G|-------0-------|
D|-3-------------|


Chorus; "If you're lost, you can look..."
D|-----------------------------|
A|-------3-------------3-------|
F|-----2---2---2-----2---2---2-|
C|---2-------2-----0-------2---|
G|-0-------------2-------------|
D|-----------------------------|

D|-----------------------------|
A|-----3-----3-----3-----------|
F|-----2-----2-----2-----2---2-|
C|---0-----0---------------0---|
G|-------0-----0-0-------------|
D|-3---------------------------|

D|-----------------------------|
A|-------3-------------3-------|
F|-----2---2---2-----2---2---2-|
C|---2-------2-----0-------2---|
G|-0-------------2-------------|
D|-----------------------------|

D|-----------------------------|
A|-----3-----3-----3-----------|
F|-----2-----2-----2-----2---2-|
C|---0-----0---------------0---|
G|-------0-----0-0-------------|
D|-3---------------------------|


Solo
D|------10--9b~---7-7h9-5~-----|
A|----8------------------------|
F|--7--------------------------|
C|-----------------------------|
G|-----------------------------| 
D|-----------------------------| \
                                  }Play twice
D|-7-5-------------------------| /
A|-----8-7-5-7-----------------|
F|-------------7~--------------|
C|-----------------------------|
G|-----------------------------|
D|-----------------------------|

D|-0-2----| (or 0h2. The hammer on is optional)
A|-----3--|
F|--------|
C|--------|
G|--------|
D|--------|

Verse

Pre-chorus

Chorus


Interlude [2:27];

D|-5-----5-----5----|
A|---3-----3-----3--|
F|-----2-----2------| Repeat twice 
C|------------------|
G|------------------|
D|------------------|

D|-5-----5-----5-----5--------------------|
A|---3-----3-----3-----3------------------|
F|-----2-----2-----2-----2----------------|
C|----------------------------------------|
G|----------------------------------------|
D|----------------------------------------|

D|-------------------5-----0---5-----0----|
A|-----3--------3------3---------3--------|
F|---2---2----2---2------2---2-----2------|
C|-0--------0-----------------------------|
G|----------------------------------------|
D|----------------------------------------|

D|---------------5-----5-----5------------|
A|-3---3-----3-----3-----3-----3----3-3-3-|
F|---2-----2---2-----2-----2-----2--------|
C|-------0--------------------------------|
G|----------------------------------------|
D|----------------------------------------|


Pre-chorus

Chorus

Outro; "Time after time..."
D|------------------------5-------|
A|-----3-----3--------3-----3---3-|
F|-----2-----2--------2-------2---|
C|---0-----0----------------------|
G|-------0------0---0---0---------|
D|-3------------------------------|
Tap to rate this tab
 
# A B C D E F G H I J K L M N O P Q R S T U V W X Y Z