Song name
# A B C D E F G H I J K L M N O P Q R S T U V W X Y Z

Saosin - Seven Years Acoustic tab

Tabbed by: Drew Gribble

Tuning: Standard/Half Step Down

Instead of dropping down to D, keep it in standard and play this.
Repeat this throughout the rest of the song.

X=mute strings after note played

e|-----------------------------------------------|
B|-----3----------3------------3-----------3-----|
G|---0---0---0---0---0---0---0---0---0---0---0---|
D|-2-------2---2-------2-------------------------|
A|-------------------------3-------3---3-------3-|
E|-----------------------------------------------|

e|-----------------------------------------------|
B|-----3----------3------------3-----------3-----|
G|---0---0---0---0---0---0---0---0---0---0---0---|
D|-2-------2---2-------2-------------------------|
A|-------------------------3-------3---3-------3-|
E|-----------------------------------------------|

e|-----------------------------------------------|
B|-----3----------3------------3-----------3-----|
G|---0---0---0---0---0---0---0---0---0---0---0---|
D|-2-------2---2-------2-------------------------|
A|-------------------------3-------3---5-------5-|
E|-----------------------------------------------|

e|------------------------|
B|-----3------------3-----|
G|---0---0--------0---0---|
D|-2-------2----2-------2-|
A|------------------------|
E|------------------------|
            X            X
Tap to rate this tab
 
# A B C D E F G H I J K L M N O P Q R S T U V W X Y Z