Song name
# A B C D E F G H I J K L M N O P Q R S T U V W X Y Z

Saosin - Its So Simple tab

It's So Simple
Saosin
Saosin

Tuning: Down 1 whole step (D G C F A d)

Legend:

~ - Let Ring
x - Ghost Note
\ - Slide Up

Intro

Rhythm Guitar

d|-------------------------------------------------------------------|
A|-------------------------------------------------------------------|
F|-------------------------------------------------------------------|
C|-66-66-666-666-6669-99-999-999-x-4-6-66-666-666-6662-22-222-2226---|
G|-66-66-666-666-6669-99-999-999-x-4-6-66-666-666-6662-22-222-2226---|
D|-44-44-444-444-4447-77-777-777-x-2-4-44-444-444-4440-00-000-0004---|

d|-------------------------------------------------------------------|
A|-------------------------------------------------------------------|
F|-------------------------------------------------------------------|
C|-66-66-666-666-6669-99-999-999-x-4-6-66-666-666-6662-22-222-2226~--|
G|-66-66-666-666-6669-99-999-999-x-4-6-66-666-666-6662-22-222-2226~--|
D|-44-44-444-444-4447-77-777-777-x-2-4-44-444-444-4440-00-000-0004~--|

Lead Guitar

d|-------------------------------------------------------------------|
A|-------------------------------------------------------------------|
F|-1313-1313-131313--111111-111111--16-1616-161616-161616--x--11--13-|
C|-1313-1313-131313--131313-131313--16-1616-161616-161616--x--13--13-|
G|-------------------------------------------------------------------|
D|-------------------------------------------------------------------|

d|-------------------------------------------------------------------|
A|-------------------------------------------------141414-141414-----|
F|-1313-1313-131313--111111-111111--16-1616-161616-151515-151515--13~|
C|-1313-1313-131313--131313-131313--16-1616-161616----------------13~|
G|-------------------------------------------------------------------|
D|-------------------------------------------------------------------|

Verse

Rhythm Guitar

d|-------------------------------------------------------------------|
A|-------------------------------------------------------------------|
F|-------------------------------------------------------------|
C|-------------------------------------------------------------------|
G|-------------------------------------------------------------------|
D|-------------------------------------------------------------------|

d|--------------------------------------------|
A|-16-----------------------------------------|     3x
F|-----15-16-11-13-------11-13----------------|
C|-----------------11-13-------11-13----------|
G|-----------------------------------14-16-13-|
D|--------------------------------------------|

d|--------------------------------------------|
A|-16--------------------------11-12----------|     
F|-----15-16-11-13-------11-13-------13-15-11-|
C|-----------------11-13----------------------|
G|--------------------------------------------|
D|--------------------------------------------|

Lead Guitar

d|-----------------------------------------------------------|
A|--13-11--------11-13--------13-11---------11-------8-------|
F|--------13-----------13-----------13------13---------------|
C|-----------------------------------------------------------|
G|-----------------------------------------------------------|
D|-----------------------------------------------------------|

d|-----------------------------------------------------------|
A|--13-11--------11-13--------13-11---------11-------8-------|
F|--------13-----------13-----------13------13---------------|
C|-----------------------------------------------------------|
G|-----------------------------------------------------------|
D|-----------------------------------------------------------|

Refrain

Rhythm Guitar

d|------------------------------------|
A|------------------------------------|
F|------------------------------------|    4x
C|------------------------------------|
G|------------------------------------|
D|-0--9-11-0-0-9-0-0-9-0-0-7-0-6-7-4--|

Lead Guitar

d|-----------------------------------|
A|-----------------------------------|
F|-----------------------------------|      4x
C|-----------------------------------|
G|----4-6-----4-----4-----2---1-2----|
D|-0------0-0---0-0---0-0---0-----4--|

Chorus

Rhythm Guitar

d|-------------------------------------------------------------------|
A|-------------------------------------------------------------------|
F|-------------------------------------------------------------------|
C|-66-66-666-666-6669-99-999-999-x-4-6-66-666-666-6662-22-222-2226---|
G|-66-66-666-666-6669-99-999-999-x-4-6-66-666-666-6662-22-222-2226---|
D|-44-44-444-444-4447-77-777-777-x-2-4-44-444-444-4440-00-000-0004---|

d|-------------------------------------------------------------------|
A|-------------------------------------------------------------------|
F|-------------------------------------------------------------------|
C|-66-66-666-666-6669-99-999-999-x-4-6-66-666-666-6662-22-222-2226~--|
G|-66-66-666-666-6669-99-999-999-x-4-6-66-666-666-6662-22-222-2226~--|
D|-44-44-444-444-4447-77-777-777-x-2-4-44-444-444-4440-00-000-0004~--|

Lead Guitar

d|-------------------------------------------------------------------|
A|-------------------------------------------------------------------|
F|-1313-1313-131313--111111-111111--16-1616-161616-161616--x--11--13-|
C|-1313-1313-131313--131313-131313--16-1616-161616-161616--x--13--13-|
G|-------------------------------------------------------------------|
D|-------------------------------------------------------------------|

d|-------------------------------------------------------------------|
A|-------------------------------------------------141414-141414-----|
F|-1313-1313-131313--111111-111111--16-1616-161616-151515-151515--13~|
C|-1313-1313-131313--131313-131313--16-1616-161616----------------13~|
G|-------------------------------------------------------------------|
D|-------------------------------------------------------------------|

Verse

Rhythm Guitar

d|-------------------------------------------------------------------|
A|-------------------------------------------------------------------|
F|-------------------------------------------------------------|
C|-------------------------------------------------------------------|
G|-------------------------------------------------------------------|
D|-------------------------------------------------------------------|

d|--------------------------------------------|
A|-16-----------------------------------------|     3x
F|-----15-16-11-13-------11-13----------------|
C|-----------------11-13-------11-13----------|
G|-----------------------------------14-16-13-|
D|--------------------------------------------|

d|--------------------------------------------|
A|-16--------------------------11-12----------|     
F|-----15-16-11-13-------11-13-------13-15-11-|
C|-----------------11-13----------------------|
G|--------------------------------------------|
D|--------------------------------------------|

Lead Guitar

d|-----------------------------------------------------------|
A|--13-11--------11-13--------13-11---------11-------8-------|
F|--------13-----------13-----------13------13---------------|
C|-----------------------------------------------------------|
G|-----------------------------------------------------------|
D|-----------------------------------------------------------|

d|-----------------------------------------------------------|
A|--13-11--------11-13--------13-11---------11-------8-------|
F|--------13-----------13-----------13------13---------------|
C|-----------------------------------------------------------|
G|-----------------------------------------------------------|
D|-----------------------------------------------------------|

Refrain

Rhythm Guitar

d|------------------------------------|
A|------------------------------------|
F|------------------------------------|    4x
C|------------------------------------|
G|------------------------------------|
D|-0--9-11-0-0-9-0-0-9-0-0-7-0-6-7-4--|

Lead Guitar

d|-----------------------------------|
A|-----------------------------------|
F|-----------------------------------|      4x
C|-----------------------------------|
G|----4-6-----4-----4-----2---1-2----|
D|-0------0-0---0-0---0-0---0-----4--|

Chorus

Rhythm Guitar

d|-------------------------------------------------------------------|
A|-------------------------------------------------------------------|
F|-------------------------------------------------------------------|
C|-66-66-666-666-6669-99-999-999-x-4-6-66-666-666-6662-22-222-2226---|
G|-66-66-666-666-6669-99-999-999-x-4-6-66-666-666-6662-22-222-2226---|
D|-44-44-444-444-4447-77-777-777-x-2-4-44-444-444-4440-00-000-0004---|

d|-------------------------------------------------------------------|
A|-------------------------------------------------------------------|
F|-------------------------------------------------------------------|
C|-66-66-666-666-6669-99-999-999-x-4-6-66-666-666-6662-22-222-2226~--|
G|-66-66-666-666-6669-99-999-999-x-4-6-66-666-666-6662-22-222-2226~--|
D|-44-44-444-444-4447-77-777-777-x-2-4-44-444-444-4440-00-000-0004~--|

Lead Guitar

d|-------------------------------------------------------------------|
A|-------------------------------------------------------------------|
F|-1313-1313-131313--111111-111111--16-1616-161616-161616--x--11--13-|
C|-1313-1313-131313--131313-131313--16-1616-161616-161616--x--13--13-|
G|-------------------------------------------------------------------|
D|-------------------------------------------------------------------|

d|-------------------------------------------------------------------|
A|-------------------------------------------------141414-141414-----|
F|-1313-1313-131313--111111-111111--16-1616-161616-151515-151515--13~|
C|-1313-1313-131313--131313-131313--16-1616-161616----------------13~|
G|-------------------------------------------------------------------|
D|-------------------------------------------------------------------|

Bridge

Rhythm Guitar

d|----------------------------------------------------------------------|
A|----------------------------------------------------------------------|
F|----------------------------------------------------------------------| 4x
C|----------------------------------------------------------------------|
G|----------------------------------------------------------------------|
D|-0--9-11-0-0-9-0-0-9-0-0-7-0-6-7-4-0--9-11-0-0-9-0-0-9-0-0-7-0-6-7-4--|

Lead Guitar

d|---------------------------------------9---9-9-9-9-9-9-9-9-9-9-9-9---|
A|-12--121212121212121212121212121212----11--111111111111111111111111--|
F|-11--111111111111111111111111111111---------------|
C|------------------------------------------------|
G|---------------------------------------------------------------------|
D|---------------------------------------------------------------------|

d|-11--11111111111111111111111111111111111111111111111111111111111111--|
A|-12--12121212121212121212121212121212121212121212121212121212121212--|
F|------------------------------------------------|
C|---------------------------------------------------------------------|
G|---------------------------------------------------------------------|
D|---------------------------------------------------------------------|

d|---------------------------------------9---9-9-9-9-9-9-9-9-9-9-9-9---|
A|-12--121212121212121212121212121212----11--111111111111111111111111--|
F|-11--111111111111111111111111111111---------------|
C|------------------------------------------------|
G|---------------------------------------------------------------------|
D|---------------------------------------------------------------------|

d|-11--11111111111111111111111111111111111111111111111111111111111111--|
A|-12--12121212121212121212121212121212121212121212121212121212121212--|
F|------------------------------------------------|
C|---------------------------------------------------------------------|
G|---------------------------------------------------------------------|
D|---------------------------------------------------------------------|

Break

Rhythm Guitar

d|---------------------------------------------------------------------|
A|---------------------------------------------------------------------|
F|---------------------------------------------------------------------|
C|---------------------------------------------------------------------|
G|---------------------------------------------------------------------|
D|-0--9-11-0-0-9-0-0-9-0-0-7-0-6-7-0-0-9-11-0-0-9-0-0-9-0-0-7-0-6-7-4--|

Lead Guitar

d|-------------------------------------------------------------------|
A|-------------------------------------------------------------------|
F|-------------------------------------------------------------|
C|-------------------------------------------------------------------|
G|-------------------------------------------------------------------|
D|-------------------------------------------------------------------|

Chorus(slightly decrease tempo)

Rhythm Guitar

d|-------------------------------------------------------------------|
A|-------------------------------------------------------------------|
F|-------------------------------------------------------------------|
C|-66-66-666-666-6669-99-999-999-x-4-6-66-666-666-6662-22-222-2226---|
G|-66-66-666-666-6669-99-999-999-x-4-6-66-666-666-6662-22-222-2226---|
D|-44-44-444-444-4447-77-777-777-x-2-4-44-444-444-4440-00-000-0004---|

d|-------------------------------------------------------------------|
A|-------------------------------------------------------------------|
F|-------------------------------------------------------------------|
C|-66-66-666-666-6669-99-999-999-x-4-6-66-666-666-6662-22-222-2226~--|
G|-66-66-666-666-6669-99-999-999-x-4-6-66-666-666-6662-22-222-2226~--|
D|-44-44-444-444-4447-77-777-777-x-2-4-44-444-444-4440-00-000-0004~--|

Lead Guitar

d|-------------------------------------------------------------------|
A|-------------------------------------------------------------------|
F|-1313-1313-131313--111111-111111--16-1616-161616-161616--x--11--13-|
C|-1313-1313-131313--131313-131313--16-1616-161616-161616--x--13--13-|
G|-------------------------------------------------------------------|
D|-------------------------------------------------------------------|

d|-------------------------------------------------------------------|
A|-------------------------------------------------141414-141414-----|
F|-1313-1313-131313--111111-111111--16-1616-161616-151515-151515--13~|
C|-1313-1313-131313--131313-131313--16-1616-161616----------------13~|
G|-------------------------------------------------------------------|
D|-------------------------------------------------------------------|

Outro

Rhythm Guitar

d|-----|
A|-----|
F|-----|
C|-6\--|
G|-6\--|
D|-4\--|

Lead Guitar

d|-----|
A|-----|
F|-13\-|
C|-13\-|
G|-----|
D|-----|
Tap to rate this tab
# A B C D E F G H I J K L M N O P Q R S T U V W X Y Z