Song name
# A B C D E F G H I J K L M N O P Q R S T U V W X Y Z

Saosin - Lost Symphonies tab

Lost Symphonies
Saosin
Translating the Name

Tabbed by Lec Segundo

Tuning: Drop C (CGCFAd) 

Legend:

~ - Let Ring
/ - Slide
v - Vibrato
________________________________________________________________

INTRO

Rhythm

d|-----------------------------------------------------------------|
A|-----------------------------------------------------------------|
F|-----------------------------------------------------------------|
C|--12-1212-1212-1212-121212----------------------9----12----------|
G|--10-1010-1010-1010-101010--9-10--9-10--9-10-12---10----10-9-10--|
C|--10-1010-1010-1010-101010---------------------------------------|

Lead

d|----------------------------14-15-14-15-14-15-14-15-14-15-14-15--|
A|-----------------------------------------------------------------|
F|-----------------------------------------------------------------|
C|--12-1212-1212-1212-121212---------------------------------------|
G|--10-1010-1010-1010-101010---------------------------------------|
C|--10-1010-1010-1010-101010---------------------------------------|

INTERLUDE

Rhythm

d|-----------------------------------|
A|-----------------------------------|
F|--IDLE-----------------------------|
C|-----------------------------------|
G|-----------------------------------|
C|-----------------------------------|

Lead

d|----------------10------------------|
A|------12-10--12-----12-10----10-12--|
F|--9-9---------------------12--------|
C|------------------------------------|
G|------------------------------------|
C|------------------------------------|

VERSE

Rhythm

d|-12-12-12-12-10-10------------------------|         \
A|-------------------10-10-12----12-12-8-10-|          \
F|-----------------------------9------------|           \
C|------------------------------------------|            \
G|------------------------------------------|             \
C|------------------------------------------|              \
                                                            >3x
d|------------------------------------10----10-15-10-|     /
A|-8-7---7-7h8h7--8-8-------7h8h7--12----12----------|    /   
F|-----9--------------9-7-9--------------------------|   / 
C|---------------------------------------------------|  /
G|---------------------------------------------------| /
C|---------------------------------------------------|/ 

Lead

d|-------------------10----------------------|
A|------12---10---12-------12---10----10-12--|
F|--9-9----9----9--------9----9----12--------|  12x
C|-------------------------------------------|
G|-------------------------------------------|
C|-------------------------------------------|

CHORUS

Rhythm

d|--------------------------------------------------------------------------|
A|--------------------------------------------------------------------------|
F|--------------------------------------------------------------------------|
C|-12/2~------x-x-2~----x-x-12-12-12-12-12-12-12-12-14-14-14-14-12-12-12-12-|
G|-12/2~------x-x-2~----x-x-10-10-10-10-10-10-10-10-12-12-12-12-12-12-12-12-|
C|-12/2~------x-x-2~----x-x-10-10-10-10-10-10-10-10-12-12-12-12-12-12-12-12-|

Lead

d|--15-14-15--------------|
A|-----------15-----------|
F|--------------14----14--|     3x
C|-----------------14-----|
G|------------------------|
C|------------------------|

d|--15-14-15-14-15-19-15--|
A|------------------------|
F|------------------------|
C|------------------------|
G|------------------------|
C|------------------------|

REPEAT INTERLUDE
REPEAT VERSE
REPEAT CHORUS

ADLIB

Rhythm

d|--------------------------------------------|
A|--------------------------------------------|
F|--------------------------------------------|
C|-2~------2~------2~--------2-2-2-22-22-2222-|
G|-2~------2~------2~--------2-2-2-22-22-2222-|
C|-2~------2~------2~--------2-2-2-22-22-2222-|

Lead

d|-------------------------------------|
A|-------------------------------------|
F|-------------------------------------|    4x
C|-------------------------------12----|
G|---9-10--9-10--9-10--9-10-9-10----10-|
C|-------------------------------------|

BRIDGE

Rhythm

d|--------------------------------------------------|
A|--------------------------------------------------|
F|--------------------------------------------------|    11x
C|--------------------------------------------12----|
G|---(0)-9-10-(0)-9-10-(0)-9-10-(0)-9-10-9-10----10-|
C|--------------------------------------------------|

Lead

d|--------------------------------10---|
A|------7-8---7-8---7-8---7-8-7-8----8-|
F|----9-----9-----9-----9--------------|    4x
C|-------------------------------------|
G|-------------------------------------|
C|-------------------------------------|

d|----------------------------------------------10----|
A|-------10-12----10-12----10-12----10-12-10-12----12-|
F|----12-------12-------12-------12-------------------|    7x
C|----------------------------------------------------|
G|----------------------------------------------------|
C|----------------------------------------------------|

OUTRO

Rhythm

d|-----------------------------------|
A|-----------------------------------|
F|-----------------------------------|
C|-----------------------------7~----|
G|--9/10v--9v--7v--5v--3v--5v--5~----|
C|-----------------------------0~----|

Lead

d|-----------------------------------|
A|--10/12v--10v--8v--7v--5v--7v--8v~-|
F|-----------------------------------|
C|-----------------------------------|
G|-----------------------------------|
C|-----------------------------------|

END

Please Rate!,... :o
Tap to rate this tab
 
# A B C D E F G H I J K L M N O P Q R S T U V W X Y Z