Song name
# A B C D E F G H I J K L M N O P Q R S T U V W X Y Z

Saosin - Collapse tab

Tabbed by: MrBluePie

I tabbed this out from the video of Justin Shekoski explaining the song
so I am positive this is 100% correct.
These are his parts.


INTRO
D|----------------------------------------------------|
A|----------------------------------------------------|
F|----------------------------------------------------|
C|-----9-5---------9-5---------9----------------------|
G|-5-7-----7-9-5-7-----7-9-5-7---7--------------------|
D|----------------------------------------------------|

D|----------------------------------------------------|
A|----------------------------------------------------|
F|----------------------------------------------------|
C|-----9-5---------9-5---------9----------------------|
G|-5-7-----7-9-5-7-----7-9-5-7---7--------------------|
D|----------------------------------------------------|

D|----------------------------------------------------|
A|----------------------------------------------------|
F|----------------------------------------------------|
C|-------9-5---------------------9--------------------|
G|---5-7-------7-9---5-7-----5-7----------------------|
D|-0---------0-----0-----0-0--------------------------|

D|----------------------------------------------------|
A|----------------------------------------------------|
F|-------------------------------------11-------------|
C|--------------------------------12-9----------------|
G|-----7---7-9---10-9--------9-10---------------------|
D|-0-0---0-----0------0-10-0--------------------------|

Verse
D|----------------------------------------------------|
A|----------------------------------------------------|
F|-------------------------9-----12---11--------------|
C|------------------12p9------------------------------|
G|-----9---10-----------------------------------------|
D|-0-0---0----0-0-0------0---0-0----0-----------------|

D|----------------------------------------------------|
A|----------------------------------------------------|
F|------------------------9-----12---11---------------|
C|-----------------12p9-------------------------------|
G|----9---10------------------------------------------|
D|--0---0----0-0-0------0---0-0----0------------------|


D|----------------------------------------------------|
A|----------------------------------------------------|
F|-------------9---------------9----------------------|
C|----------12--------------12------------------------|
G|---9-10----------9---10----------9------------------|
D|-0------0------0---0----0------0---0----------------|

D|----------------------------------------------------|
A|----------------------------------------------------|
F|---------9---------------9-----------11-------------|
C|------12--------------12--------12-9----------------|
G|-10----------9---10--------9-10---------------------|
D|----0------0---0----0-------------------------------|

PRE-CHORUS
D|----------------------------------------------------|
A|----------------------------------------------------|
F|----------------------------------------------------|
C|-----9-5---------9-5---------9----------------------|
G|-5-7-----7-9-5-7-----7-9-5-7---7--------------------|
D|----------------------------------------------------|

D|----------------------------------------------------|
A|----------------------------------------------------|
F|----------------------------------------------------|
C|-----9-5---------9-5---------9----------------------|
G|-5-7-----7-9-5-7-----7-9-5-7---7--------------------|
D|----------------------------------------------------|

Chorus
D|--------12*-------------------------12*-------------|
A|-7*---------12*----12*--7*----7*--------12*----12*--|
F|----5*---------------------5*----5*-----------------|
C|----------------------------------------------------|
G|----------------------------------------------------|
D|----------------------------------------------------|

D|-------------12*-------------------------12*--------|
A|-7*----7*--------12*----12*--7*----7*---------------|
F|----5*----5*--------------------5*----5*------------|
C|----------------------------------------------------|
G|----------------------------------------------------|
D|----------------------------------------------------|

D|----------7*----------------------------------------|
A|-5*----5*-------------------------------------------|
F|----7*-------5*-------------------------------------|
C|----------------------------------------------------|
G|----------------------------------------------------|
D|----------------------------------------------------|



Bridge
D|-----------0-0-0-0-----0----0-0-----0-----0-----0---0----------|
A|-----------5-5-5-5-----5----3-3-----5-----3-----5---3----------|
F|-------------------------------------------------------2/4\2p0-|
C|---------------------------------------------------------------|
G|---------------------------------------------------------------|
D|-0-0-0-0-0---------0-0---0-0----0-0---0-0---0-0---0---0--------|

The tail end of bridge is like the intro. Justin explained it is just kinda chopped up.
Tap to rate this tab
 
# A B C D E F G H I J K L M N O P Q R S T U V W X Y Z