Song name
# A B C D E F G H I J K L M N O P Q R S T U V W X Y Z

Saosin - Plays Pretty For Baby tab

Help us improve GuitareTab! Take a short survey!
Make this tabs by ear...i not sure its right, but sounds good..
The tabs is easy....
ENJOI!!!!!

intro/verse 6 times
|-----------------------------------------------------------------|
|-----------------------------------------------------------------|
|---8-8-8-8-8-10-8xx----------------------------------------------|
|---6-6-6-6-6-6--6xx8-8-8-8-8-8-8xx---------------6-6-6-6-6-6-6xx-|
|-------------------6-6-6-6-6-6-6xx8-8-8-8-8-8-8xx4-4-4-4-4-4-4xx-|
|----------------------------------6-6-6-6-6-6-6xx----------------|

Chorus
|-------------------------------------------------------------------|
|-------------------------------------------------------------------|
|---8-8-8-8-8-8-8xx-------------------------------------------------|
|---6-6-6-6-6-6-6xx8-8-8-8-8-8-8xx---------------6-6-6-6-6-6-6xx----|
|-------------------6-6-6-6-6-6-6xx8-8-8-8-8-8-8xx4-4-4-4-4-4-4xx---|
|----------------------------------6-6-6-6-6-6-6xx------------------|

Solo:

|-----------------------------------------------------------------|
|-----------------------------------------------------------------|
|-----------------13------13--------------------------------------|
|-------13~----11---11-10---10------------------------------------| x2
|-11~-------------------------------------------------------------|
|-----------------------------------------------------------------|

Hope you enjoi!!!
Related for Plays Pretty For Baby tab