Song name
# A B C D E F G H I J K L M N O P Q R S T U V W X Y Z

Saosin - Penelope Acoustic tab

Capo on 3

e|----------------------------------------------------------|
B|------------0--------------------0------------------------|
G|--------2-----2---2~---------2-----2---2-----2-------2----|
D|------0---0-----0----------0---0-----0-----0---0-4-0---0--|
A|--0h2------------------0h2--------------------------------|
E|----------------------------------------------------------|

         Oh Penelope…
e|-----------------------------------------|
B|------------0-----0-----0-----0----------|
G|--------2-----2-----2-----2-----2--------|
D|------0---0-----0-----0-----0-----0------|
A|--0h2------------------------------------|
E|-----------------------------------(x3)--|

e|-----------------------------------------|
B|------------0-----0----------------------|
G|--------2-----2-----2---2-------2--------|
D|------0---0-----0-----0---0-4-0---0------|
A|--0h2------------------------------------|
E|-----------------------------------------|

  (G.1)
e|-----------------------------------------|
B|------------0-----0-----0-----0----------|
G|--------2-----2-----2-----2-----2--------|
D|------0---0-----0-----0-----0-----0------|
A|--0h2------------------------------------|
E|-----------------------------------(x2)--|
  (G.2)
e|------0-----0-----0-----0-----0----------|
B|--------3-----3-----3-----3-----3---3----|
G|----------2-----2-----2-----2-----2------|
D|-----------------------------------------|
A|-----------------------------------------|
E|-----------------------------------------|

e|------2-----2-----2-----2-----2----------|
B|--------2-----2-----2-----2-----2---2----|
G|----------2-----2-----2-----2-----2------|
D|-----------------------------------------|
A|-----------------------------------------|
E|-----------------------------------------|

e|-----------------------------------------|
B|------------0-----0-----0-----0----------|
G|--------2-----2-----2-----2-----2--------|
D|------0---0-----0-----0-----0-----0------|
A|--0h2------------------------------------|
E|-----------------------------------(x2)--|

          Oh Penelope…
e|-----------------------------------------|
B|------------0-----0-----0-----0----------|
G|--------2-----2-----2-----2-----2--------|
D|------0---0-----0-----0-----0-----0------|
A|--0h2------------------------------------|
E|-----------------------------------(x6)--|

            I’m treading water…
e|-----------------------------------------|
B|------------0-----0-----0-----0----------|
G|--------2-----2-----2-----2-----2--------|
D|------0---0-----0-----0-----0-----0------|
A|--0h2------------------------------------|
E|-----------------------------------(x4)--|

             Take you to the forest…
e|-----------------------------------------|
B|------------0-----0-----0-----0----------|
G|--------2-----2-----2-----2-----2--------|
D|------0---0-----0-----0-----0-----0------|
A|--0h2------------------------------------|
E|-----------------------------------(x8)--|

  (bridge G.1)
e|-----------------------------------------|
B|------------0-----0-----0-----0----------|
G|--------2-----2-----2-----2-----2--------|
D|------0---0-----0-----0-----0-----0------|
A|--0h2------------------------------------|
E|------------------------------------(x2)-|
  (bridge G.2)
e|-------------------------------------2-----2-----2-----2-----2-------|
B|------------0-----0-----0-----0--------0-----0-----0-----0-----0-----|
G|--------2-----2-----2-----2-----2--------2-----2-----2-----2-----2---|
D|------0---0-----0-----0-----0-----0----------------------------------|
A|--0h2----------------------------------------------------------------|
E|---------------------------------------------------------------------|

       Don’t wanna see you…
e|-----------------------------------------|
B|------------0-----0-----0-----0----------|
G|--------2-----2-----2-----2-----2--------|
D|------0---0-----0-----0-----0-----0------|
A|--0h2------------------------------------|
E|-----------------------------------(x4)--|

    Ooohh, release that air…
e|------------------------------------------|
B|------------0-----0-----0-----0-----------|
G|--------2-----2-----2-----2-----2---------|
D|------0---0-----0-----0-----0-----0-------|
A|--0h2-------------------------------------|
E|-----------------------------------(x10)--|


e|-----------------------------------------|
B|------------0-----0-----0-----0----------|
G|--------2-----2-----2-----2-----2--------|
D|------0---0-----0-----0-----0-----0------|
A|--0h2------------------------------------|
E|-----------------------------------(x4)--|

  [end]
e|-----------------------|
B|------------0----------|
G|--------2-----2---2~---|
D|------0---0-----0------|
A|--0h2------------------|
E|-----------------------|
Tap to rate this tab
# A B C D E F G H I J K L M N O P Q R S T U V W X Y Z