Song name
# A B C D E F G H I J K L M N O P Q R S T U V W X Y Z

Saosin - Uphill Battle tab

Song: “Uphill Battle”
Artist: Saosin
Dropped D 


/    - slide
h     - hammer-on
p     - pull-off
*     - harmonic
b     - bend
~     - ring out

Guitar 1
Intro/Verse (7x)
|--------1---------------------|
|----------3-1-----------------|
|--2h3p0-------2h3p2p0--2-3-0--|
|------------------------------|
|------------------------------|
|------------------------------|

Guitar 2
Intro/Verse (follows last part of guitar 1 each time it is played)
|---------|
|---------|
|--2-3-0--|
|---------|
|---------|
|---------|

Guitar 1
Chorus (1x)
|----------------------------------------------------|
|----------------------------------------------------|
|----------------------------------------------------|
|--55555555--55--55--55---33333333--33--33--33--5~~--|
|--55555555--55--55--55---33333333--33—-33--33--5~~--|
|--55555555--55--55--55---33333333--33—-33--33--5~~--|

Guitar 2
Chorus 
|--------------------------------|
|--------------------------------|
|--77777777--77777777--77777777--|
|--------------------------------|
|--------------------------------|
|--------------------------------|


|------------------------------------------------|
|------------------------------------------------|
|----------77777777---77777777--77777777---------|
|--55555555---------55--------55--------55-------|
|--55555555---------55--------55--------55-------|
|--55555555---------55--------55--------55-------|

|------------------------------------------------|
|------------------------------------------------|
|----------77777777---77777777--77777777---------|
|-33333333---------33—--------33--------33--5~~--|
|-33333333---------33—--------33--------33--5~~--|
|-33333333---------33---------33--------33--5~~--|

Guitar 1
Verse 2 (12x)
|-------------------------------|
|--6b7b6---------------------6--|
|-------------------------------|
|--------7-8-7-5--5-7-5-7-8-----|
|-------------------------------|
|-------------------------------|
Guitar 2
Verse 2 
|---------------13---------------------13------------|
|--10h11p10h11-----10h11p10--10h11p10------10h11p10--|
|----------------------------------------------------|
|----------------------------------------------------|
|----------------------------------------------------|
|----------------------------------------------------|

Guitar 1
Chorus 2
|-----------------------------------------------|
|-----------------------------------------------|
|-----------------------------------------------|
|--55555555--55--55--55---33333333--33--33--33--|
|--55555555--55--55--55---33333333--33—-33--33--|
|--55555555--55--55--55---33333333--33—-33--33--|

Guitar 2
Chorus 2(Played same as first Chorus)
|--------------------------------|
|--------------------------------|
|--77777777--77777777--77777777--|
|--------------------------------|
|--------------------------------|
|--------------------------------|

Or. Both Guitars.
|------------------------------------------------|
|------------------------------------------------|
|----------77777777---77777777--77777777---------|
|--55555555---------55--------55--------55-------|
|--55555555---------55--------55--------55-------|
|--55555555---------55--------55--------55-------|

|---------------------------------------------|
|---------------------------------------------|
|----------77777777---77777777--77777777------|
|-33333333---------33—--------33--------33----|
|-33333333---------33—--------33--------33----|
|-33333333---------33---------33--------33----|

Guitar 1
Chorus 2 (Continued…)
|-------------------------------------|
|-------------------------------------|
|-------------------------------------|
|-1111111111111111--3333333333333333--|
|-1111111111111111--3333333333333333--|
|-1111111111111111--3333333333333333--|

|----------------------------------------------------------|
|----------------------------------------------------------|
|----------------------------------------------------------|
|--5555555555555555---3333333333333333---1111111111111111--|
|--5555555555555555---3333333333333333---1111111111111111--|
|--5555555555555555---3333333333333333---1111111111111111--|

|--------------------|
|--------------------|
|--------------------|
|--3333333333333333--|
|--3333333333333333--|
|--3333333333333333--|

Play 2 more times
|-----------------------------------------------|
|-----------------------------------------------|
|-----------------------------------------------|
|--55555555--55--55--55---33333333--33--33--33--|
|--55555555--55--55--55---33333333--33—-33--33--|
|--55555555--55--55--55---33333333--33—-33--33--| 

Guitar 2
Chorus 2(Played same as first Chorus)
|--------------------------------|
|--------------------------------|
|--77777777--77777777--77777777--|
|--------------------------------|
|--------------------------------|
|--------------------------------|

Or. Both Guitars.
|------------------------------------------------|
|------------------------------------------------|
|----------77777777---77777777--77777777---------|
|--55555555---------55--------55--------55-------|
|--55555555---------55--------55--------55-------|
|--55555555---------55--------55--------55-------|

|---------------------------------------------|
|---------------------------------------------|
|----------77777777---77777777--77777777------|
|-33333333---------33—--------33--------33----|
|-33333333---------33—--------33--------33----|
|-33333333---------33---------33--------33----|

Guitar 1
Bridge (2x)
|-----------------------|
|-----------------------|
|-----------------------|
|-5-5/8--8/12--7--3-3/5-|
|-----------------------|
|-----------------------|

|-----------|
|-----------|
|-----------|
|--5/8--0~--|
|-----------|
|-----------|

Guitar 2
Bridge
|-----------------|
|-----------------|
|-----------------|
|--5-----3-----1--|
|--5-----3-----1--|
|--5-----3-----1--|


|--4*---|
|--4*---|
|--4*---|
|--4*---|
|--4*---|
|-------|

Guitar 1
Outro (3x)
|------------------------------------------------------------------|
|------------------------------------------------------------------|
|--------------------------------------7777777777777777------------|
|--5555555555555555--3333333333333333--------------------55555555--|
|--5555555555555555--3333333333333333--5555555555555555--55555555--|
|--5555555555555555--3333333333333333--------------------55555555--|
                
Guitar 1
Outro (continued)
|--------------|
|--------------|
|--7777--3333--|
|--------------|
|--5555--1111--|
|--------------|

Guitar 2
Outro
|----------------------------------------------------|
|----------------------------------------------------|
|--77777--5--3--5555--------77777--5--3--5555--7--3--|
|---------------------5-8----------------------------|
|--55555--3--1--3333--5-8---55555--3--1--3333--5--1--|
|---------------------5-8----------------------------|

Guitar 2
Outro
|----------------------------------------------------|
|----------------------------------------------------|
|--77777--5--3--5555--------77777--5--3--5555--3--2--|
|---------------------5-8-------------------------2--|
|--55555--3--1--3333--5-8---55555--3--1--3333--1--0--|
|---------------------5-8----------------------------|

Guitar 2
Outro (Last Time)
|----------------------------------------------------|
|----------------------------------------------------|
|--77777--5--3--5555--------77777--5--3--5555--7--3--|
|---------------------5-8----------------------------|
|--55555--3--1--3333--5-8---55555--3--1--3333--5--1--|
|---------------------5-8----------------------------|

Both Guitars
End on
|---------|
|---------|
|---------|
|---5~~---|
|---5~~---|
|---5~~---|
Tap to rate this tab
# A B C D E F G H I J K L M N O P Q R S T U V W X Y Z