Song name
# A B C D E F G H I J K L M N O P Q R S T U V W X Y Z

Saosin - Lost Symphonies tab

Saosin
Lost Symphonies

Tabbed by: Matt S. :)

.~Palm Note
\~Down Slide
h~Hammer
p~Pulloff

Intro:(0:00-0:14)
Guitar 1
D:-------------------------------------------------------------|
A:-------------------------------------------------------------|
F:--12121212121212121212---------------------------------------|
C:--12121212121212121212-------------------------9---12--------|
G:--10101010101010101010-0-9-10-0-9-10-0-9-10-12--10---10-9-10-|
C:--10101010101010101010---------------------------------------|x2

Guitar 2
D:-----------------------14h15-14h15-14h15-14h15p14h15p14h15p14h15p14-|
A:--------------------------------------------------------------------|
F:-1212121212121212121212---------------------------------------------|
C:-1212121212121212121212---------------------------------------------|
G:-1010101010101010101010---------------------------------------------|
C:-1010101010101010101010---------------------------------------------|x2

Verse:(0:15-0:49)
(Replace the occasion to speak..)

Guitar 1
D:-12--10-----------------------------------------------------15--17--15|
A:---12--12-10-10h12-12-10----------------------------------15--15--15--|
F:------------9-----------12-11-9-11-11/12-11--9-7-9-9/12-11------------|
C:----------------------------------------------------------------------|
G:----------------------------------------------------------------------|
C:----------------------------------------------------------------------|x3

Guitar 2
D:-----------12-10---------------|
A:---12---10---------10---10h12--|
F:-9----9----------9----9--------|
C:-------------------------------|
G:-------------------------------|
C:-------------------------------|x12


Chorus:(0:50-1:08)
Guitar 1
D:------------------------------------|-----------------------------------|
A:-------<7>--------------------------|-------<7>-----<7>-----<5>---------|
F:---<5>-----<5>-<7>------------------|--<5>-----<5>-----<5>-----<5>------|
C:-------------------<7>-----<7>------|-----------------------------------|
G:-----------------------<7>----------|-----------------------------------|
C:-------------------------------<5>--|-----------------------------------|
  {~~~~~~~~~~~~~~~x3~~~~~~~~~~~~~~~~~}

D:------------------------------------------------------------------|
A:------------------------------------------------------------------|
F:------------------------------------------------------------------|
C:-12\0-0-00-0--12--1212121212121212\0-0-0000-0-12-1212121212121212-|
G:-12\0-0-00-0--10--1212121212121212\0-0-0000-0-10-1212121212121212-|
C:-12\0-0-00-0--10--1212121212121212\0-0-0000-0-10-1212121212121212-|x2
          ..                             ....  

*Repeat Verse 1 and follow with Chorus*

Bridge:(2:06-2:45)
D:------------------------------------------|
A:------------------------------------------|
F:------------------------------------------|
C:------------------------------------12----|
G:---0-9-10-0-9-10-0-9-10-0-9h10-9h10----10-|
C:------------------------------------------|

Tap to rate this tab
 
# A B C D E F G H I J K L M N O P Q R S T U V W X Y Z