Song name
# A B C D E F G H I J K L M N O P Q R S T U V W X Y Z

Saosin - Mookies Last Christmas tab

Hi Guys!! I have this song 100% Perfectly Tabbed out. It is easier than most of
the tabs for this song

Today, we will use Drop C tuning (CGcfad)
Key:
p-Pull Off
h-Hammer On
< >-Harmonics


Intro/verse (Lead Guitar)
I suggest trying tapping. i just strum the first note and let my fretboard hand do the rest.
d----------7--------------------|
a--0h7h9p0---0h7h9p0-0h4h5p0h7h9|
f-------------------------------|
c-------------------------------|
G-------------------------------|
C-------------------------------|

Intro/1st Verse (Rhythm Guitar)(repeat as needed)
d-0000000-000000-000000-2222222-|
a-5555555-444444-555555-5555555-|
f-------------------------------|
c-------------------------------|
G-------------------------------|
C-------------------------------|


Chorus (Lead Guitar)
Use harmonics (repeat as needed)
d-< 5 >---------< 12 >-< 12 >-----------|
a-----< 5 >-< 7 >----------< 7 >-< 9 >--|
f---------------------------------------|
c---------------------------------------|
G---------------------------------------|
C---------------------------------------|

Chorus (Rhythm guitar)(figure out strumming, I will only give the chords)
d-------------------------------|
a-------------------------------|
f-------------------------------|
c--11--2--7--9------------------|
G--11--2--7--9------------------|
C--11--2--7--9------------------|

Verse2 (Lead Guitar)
Same as verse1 (Lead Guitar)

Verse2 (Rhythm Guitar)
Use harmonics (repeat as needed)
d-< 5 >---------< 12 >-< 12 >-----------|
a-----< 5 >-< 7 >----------< 7 >-< 9 >--|
f---------------------------------------|
c---------------------------------------|
G---------------------------------------|
C---------------------------------------|

Chorus

Verse 2 

Outro (Both Guitars)
Use harmonics (repeat as needed)
d-< 5 >---------< 12 >-< 12 >-----------|
a-----< 5 >-< 7 >----------< 7 >-< 9 >--|
f---------------------------------------|
c---------------------------------------|
G---------------------------------------|
C---------------------------------------|


If you have any suggestions, Email them to me at Shewatchedthesky@gmail.com
Tap to rate this tab
# A B C D E F G H I J K L M N O P Q R S T U V W X Y Z