Song name
# A B C D E F G H I J K L M N O P Q R S T U V W X Y Z

Saosin - Let Go Control tab

It's my first tab.

"Let Go Control"
SAOSIN

e:10-10-10-10-10-10---------------------------------------------|
B:------------------14-14-14-10-10-10-12-12-12-12---------------|
D:--------------------------------------------------------------|
G:--------------------------------------------------------------|
A:--------------------------------------------------------------|
D:--------------------------------------------------------------|

e:10-10-10-10-10-10----------10-10-10-9-9-9-9-9-9---------------|
B:------------------10-10-10------------------------------------|
D:--------------------------------------------------------------|
G:--------------------------------------------------------------|
A:--------------------------------------------------------------|
D:--------------------------------------------------------------|

e:10-10-10-10-10-10---------------------------------------------|
B:------------------14-14-14-10-10-10-12-12-12-12---------------|
D:--------------------------------------------------------------|
G:--------------------------------------------------------------|
A:--------------------------------------------------------------|
D:--------------------------------------------------------------|

e:10-10-10-10-10-10-12-12-12-9-9-9-9-10~------------------------|
B:--------------------------------------------------------------|
D:--------------------------------------------------------------|
G:--------------------------------------------------------------|
A:--------------------------------------------------------------|
D:--------------------------------------------------------------|
Tap to rate this tab
# A B C D E F G H I J K L M N O P Q R S T U V W X Y Z