Song name
# A B C D E F G H I J K L M N O P Q R S T U V W X Y Z

Saosin - Finding Home tab

Hi guys
this tab is finding home
Personally I respect Saosin's rhythm guitarist (though I don't know his name. what's his name?)
They are great band Aren't they?
If you have any questions or request for saosin tabs
feel free to email me


This song goes

Verse
Chorus1
Verse
Chorus2
Breakdown(or bridge)
Outro(Chorus) <----Actually Its order is Chorus and then Outro but I tabbed in point of view of 

Guitar player(Not to confuse)


s slide
b bend
^ vibrato

-------------------------------------------------------------------------------
			    Finding home - Saosin
-------------------------------------------------------------------------------
Tabbed by:rg321mh
Email:rg321mh@gmail.com	

Tuning:C drop (CGCFAd)


Verse

Either Rhythm guitar or Lead guitar (I prefer rhythm guitar)
d||---------------------------||
A||o-4-(4)-5-(5)-4-(4)-5-(5)-o||
F||-----4-(4)-4-(4)-4-(4)-4---|| Repeat this during the verse
C||---------------------------||
G||o-------------------------o||
C||---------------------------||

Either Rhythm guitar or Lead guitar(Personally I think it's rhythm guitar part though)
(If you are in a band ,Lead guitar can play only the last thing)
d|--------0-|
A|--------9-|
F|--------9-|
C|-s9--2----|
G|-s9--2----|
C|-s9--2----|



Chorus 1

Rhythm guitar 
 *Listen to rhythm and strum these chords and at "s" slide from the down flet to 7 flet
|---------------------------------------------|
|---------------------------------------------|
|---------------------------------------------|
|-11----2----9----7----11----2----9----7---s7-| 
|-11----2----9----7----11----2----9----7---s7-|
|-11----2----9----7----11----2----9----7---s7-|

Lead guitar            
|-0--0--0----0--0--0----0--0--0----0--0--0-|
|-5--4--0----0--5--7----5--4--0----0--5--7-|
|------------------------------------------|
|------------------------------------------|
|------------------------------------------|
|------------------------------------------|


Chorus 2

Rhythm guitar 
 *Listen to rhythm and strum these chords
|----------------------------------------|
|----------------------------------------|
|----------------------------------------|
|-11----2----9----7----11----2----9----7-| X2
|-11----2----9----7----11----2----9----7-|
|-11----2----9----7----11----2----9----7-|

Lead guitar            
|-0--0--0----0--0--0----0--0--0----0--0--0-|
|-5--4--0----0--5--7----5--4--0----0--5--7-|
|------------------------------------------|
|------------------------------------------| X2
|------------------------------------------|
|------------------------------------------|



Break down(or Bridge)

Rhythm guitar
Strum these chords and then play these which is exactly same as verse (repeat)
|-----------------------| ||---------------||
|-----------------------| ||o-4-(4)-5-(5)-o||
|-----------------------| ||----4-(4)-4----||
|-s7--9--11----7--9--11-| ||---------------||
|-s7--9--11----7--9--11-| ||o-------------o||
|-s7--9--11----7--9--11-| ||---------------||


Lead guitar
Actually Because of the lacking space,I couldn't tab exact numbers of each note
so Listen to it and play these notes (I am sure notes are all right)
|--------------------------------------------19-19-19-------------------------|
|-s17-17-17-17-17-17-17-17-16-16-16-16-16-16----------------------------------|
|-----------------------------------------------------18-18-18-18-18-18-18-18-|
|-----------------------------------------------------------------------------|
|-----------------------------------------------------------------------------|
|-----------------------------------------------------------------------------|

|--------------------------------------------19-19-19-19----------16-16-16--------------------|
|-s17-17-17-17-17-17-17-17-16-16-16-16-16-16-------------19-19-19----------17-17-16-16-16b(16)|
|---------------------------------------------------------------------------------------------|
|---------------------------------------------------------------------------------------------|
|---------------------------------------------------------------------------------------------|
|---------------------------------------------------------------------------------------------|
When rhythm guitar plays verse part...(Using "Octave effect(lower)")
|----------------------------------------------------------------------------|
|----------------------------------------------------------------------------|
|-8b(9)8--------6-----8b(9)8--------6----8b(9)8---------6----8b(9)8--------6-|
|---------6--9-----9----------6--9-----9----------6--9-----9---------6--9----|
|----------------------------------------------------------------------------|
|----------------------------------------------------------------------------|



Outro (Chorus)

Rhythm guitar 
|----0-|
|----9-|
|----9-|
|-9----|
|-9----|
|-9----|

|----------------------------------------|
|----------------------------------------|
|----------------------------------------|
|-11----2----9----7----11----2----9----7-| X6
|-11----2----9----7----11----2----9----7-|
|-11----2----9----7----11----2----9----7-|

|---------|
|---------|
|---------|
|-11----2-| The end
|-11----2-|
|-11----2-|


Lead guitar            
|-0--0--0----0--0--0----0--0--0----0--0--0-|
|-5--4--0----0--5--7----5--4--0----0--5--7-|
|------------------------------------------|
|------------------------------------------| X2
|------------------------------------------|
|------------------------------------------|

It's very unclear sound(so Listen carefully)
(but I am sure rhythm guitar is playing same thing 
only Drum and lead guitar play differently and maybe bass as well..)
|--------------------------------------------------|
|--------------------------------------------------|
|--------------------------------------------------|
|-------7--9---------------9--7------9-------------| X3
|-7--9--------9--10--7^----------10-----9--10--7^--|
|--------------------------------------------------|

|-----------------------|
|-----------------------|
|-----------------------|
|-------7--9------------| The end
|-7--9--------10--9--7^-|
|-----------------------|
Tap to rate this tab
# A B C D E F G H I J K L M N O P Q R S T U V W X Y Z