Song name
# A B C D E F G H I J K L M N O P Q R S T U V W X Y Z

Saosin - Some Sense Of Security tab

-------------------------------------------------------------------------------
		  Some Sense Of Security (Intro) - Saosin
-------------------------------------------------------------------------------
Tabbed by: Brendan
Email: flyingcows1001@hotmail.com

Tuning: Drop C

e|---------------------------------------------------------------------------|
B|----------13---------------------------------------------------------------|
G|-------16----16-12\\----//1010101012121212---------------------------------|
D|55555----------------11---x-x-x-x-x-x-x-x--5555~---------------------------|
A|55555----------------11-//8-8-8-8-10101010-5555~---------------------------|
E|55555----------------11--------------------5555~---------------------------|
     xP.M.  4th note   1's not 11            xxx fast pm and hold last note


e|-------------------------------------------------------------------------------|
B|----------13-------------------------------------------------------------------|
G|-------16----16-12\\----//17171716161616121212---------------------------------|
D|55555----------------11---x-x-x-x-x-x-x-x-x-x--55~-----------------------------|
A|55555----------------11-//15151515141416101010-55~-----------------------------|
E|55555----------------11------------------------55~-----------------------------|
     x				               x

Well I thought I would tab this out since the other intro kinda sucked Xcore,
Rate it and give me some feedback [: Enjoy!


| /  slide up
| \  slide down
| h  hammer-on
| p  pull-off
| ~  vibrato
| +  harmonic
| x  Mute note
===============================================================================
Tap to rate this tab
# A B C D E F G H I J K L M N O P Q R S T U V W X Y Z