Song name
# A B C D E F G H I J K L M N O P Q R S T U V W X Y Z

Saosin - Youre No Angel tab

+++++++++++++++++++++++++++
| Saosin- You're No Angel |
+++++++++++++++++++++++++++

Tuning: EADGBe

Guitar1: Right Earphone
Guitar2: Left Earphone

Intro: Guitar 1
1.
e|------------------------------------------------|
B|--------9-9-666666-4-4--------9-9-666666-44-66--|
G|-555555-8-8-555555-3-3-555555-8-8-555555-33-55--|
D|-555555-6-6-333333-1-1-555555-6-6-333333-11-33--|
A|-333333----------------333333-------------------|
E|------------------------------------------------|

2.
e|--------------------------------------|
B|--------9-9-666666-4-4--------9-9-6~--|
G|-555555-8-8-555555-3-3-555555-8-8-5~--|
D|-555555-6-6-333333-1-1-555555-6-6-3~--|
A|-333333----------------333333---------|
E|--------------------------------------|

Guitar 2
3.
e|------------------------|
B|------------------------|
G|-555555-----333333------|
D|-555555-6-6-333333-5-5--|
A|-333333-6-6-111111-5-5--|--x2
E|--------4-4--------3-3--|

4.
e|----------------|
B|----------------|
G|-555555-----3~--|
D|-555555-6-6-3~--|
A|-333333-6-6-1~--|
E|--------4-4-----|

Verse: Guitar 1
5.
e|-7-----4-----------------7-----4------------------|
B|---4-----4---7-9-7-3-4-3---4-----4---7-9-7-3-4-3--|
G|-----3-----3-----------------3-----3--------------|
D|--------------------------------------------------|
A|--------------------------------------------------|--x2
E|--------------------------------------------------|

Guitar 2
6.
e|-------------------77777777-7777------------------------------------------|
B|-33333333-33334444--------------4444-33333333-33334444--------------------|
G|-------------------------------------------------------33333333-33333333--|
D|--------------------------------------------------------------------------|
A|--------------------------------------------------------------------------|--x2
E|--------------------------------------------------------------------------|

PreChorus: Guitar 1
7.
e|-----------------------------------|
B|-----------------------------------|
G|-----------------------------------|
D|-55555555-----------66666666-6x-8--|
A|-55555555-5h6666666-66666666-6x-8--|
E|-33333333-----------44444444-4x-6--|

Guitar 2
8.
e|-------------------------------|
B|-------------------------------|
G|-------------------------------|
D|-55555555-5x----66666666-6x-8--|
A|-55555555-5x----66666666-6x-8--|
E|-33333333-3x----44444444-4x-6--|

Chorus Guitar 1
9.
e|------------------------------------------------|
B|--------9-9-666666-4-4--------9-9-666666-44-66--|
G|-555555-8-8-555555-3-3-555555-8-8-555555-33-55--|
D|-555555-6-6-333333-1-1-555555-6-6-333333-11-33--|
A|-333333----------------333333-------------------|
E|------------------------------------------------|

10.
e|--------------------------------------|
B|--------9-9-666666-4-4--------9-9-6~--|
G|-555555-8-8-555555-3-3-555555-8-8-5~--|
D|-555555-6-6-333333-1-1-555555-6-6-3~--|
A|-333333----------------333333---------|
E|--------------------------------------|

Guitar 2
11.
e|------------------------|
B|------------------------|
G|-555555-----333333------|
D|-555555-6-6-333333-5-5--|
A|-333333-6-6-111111-5-5--|--x2
E|--------4-4--------3-3--|

12.
e|----------------|
B|----------------|
G|-555555-----3~--|
D|-555555-6-6-3~--|
A|-333333-6-6-1~--|
E|--------4-4-----|

Verse: Guitar 1
13.
e|-7-----4-----------------7-----4------------------|
B|---4-----4---7-9-7-3-4-3---4-----4---7-9-7-3-4-3--|
G|-----3-----3-----------------3-----3--------------|
D|--------------------------------------------------|
A|--------------------------------------------------|--x2
E|--------------------------------------------------|

Guitar 2
14.
e|-------------------77777777-7777------------------------------------------|
B|-33333333-33334444--------------4444-33333333-33334444--------------------|
G|-------------------------------------------------------33333333-33333333--|
D|--------------------------------------------------------------------------|
A|--------------------------------------------------------------------------|--x2
E|--------------------------------------------------------------------------|

PreChorus: Guitar 1
15.
e|-----------------------------------|
B|-----------------------------------|
G|-----------------------------------|
D|-55555555-----------66666666-6x-8--|
A|-55555555-5h6666666-66666666-6x-8--|
E|-33333333-----------44444444-4x-6--|

Guitar 2
16.
e|-------------------------------|
B|-------------------------------|
G|-------------------------------|
D|-55555555-5x----66666666-6x-8--|
A|-55555555-5x----66666666-6x-8--|
E|-33333333-3x----44444444-4x-6--|

Chorus Guitar 1
17.
e|------------------------------------------------|
B|--------9-9-666666-4-4--------9-9-666666-44-66--|
G|-555555-8-8-555555-3-3-555555-8-8-555555-33-55--|
D|-555555-6-6-333333-1-1-555555-6-6-333333-11-33--|
A|-333333----------------333333-------------------|
E|------------------------------------------------|

18.
e|--------------------------------------|
B|--------9-9-666666-4-4--------9-9-6~--|
G|-555555-8-8-555555-3-3-555555-8-8-5~--|
D|-555555-6-6-333333-1-1-555555-6-6-3~--|
A|-333333----------------333333---------|
E|--------------------------------------|

Guitar 2
19.
e|------------------------|
B|------------------------|
G|-555555-----333333------|
D|-555555-6-6-333333-5-5--|
A|-333333-6-6-111111-5-5--|--x2
E|--------4-4--------3-3--|

20.
e|----------------|
B|----------------|
G|-555555-----3~--|
D|-555555-6-6-3~--|
A|-333333-6-6-1~--|
E|--------4-4-----|

01:28
Bridge: Guitar 1
21.
e|--------------------------------------------------------------|
B|--------------------------------------------------------------|
G|----------7-8-8----------7-8-8----------7-8-8----------7-8-10-|
D|-66666666-------55555555-------66666666-------55555555--------|
A|-66666666-------55555555-------66666666-------55555555--------|
E|-44444444-------33333333-------44444444-------33333333--------|

22.
e|-----------------------------------------------------------------|
B|-----------------------------------------------------------------|
G|----------7-8-8----------7-8-7----------7-8-8--------------------|
D|-66666666-------55555555-------66666666-------55555555-5x----3~--|
A|-66666666-------55555555-------66666666-------55555555-5x----3~--|
E|-44444444-------33333333-------44444444-------33333333-3x----1~--|

Bridge: Guitar 2
23.
e|-----------------------------------------------------------|
B|-----------------------------------------------------------|
G|-----------------------------------------------------------|
D|-66666666-6x----55555555-5x----66666666-6x----55555555-5x--|
A|-66666666-6x----55555555-5x----66666666-6x----55555555-5x--|--x2
E|-44444444-4x----33333333-3x----44444444-4x----33333333-3x--|

24.
e|-----|
B|-----|
G|-----|
D|-3~--|
A|-3~--|
E|-1~--|

And play chorus the way the guitars should play :D
Then finish with guitar 1

25.
e|--------------|
B|--3~-3h4~-----|
G|----------5~--| Until song fades
D|--------------|
A|--------------|
E|--------------|

+++++++++++++++++++++++++++++++++
| RaiLeff                       |
| Underground__Dora@Hotmail.Com |
+++++++++++++++++++++++++++++++++
Tap to rate this tab
# A B C D E F G H I J K L M N O P Q R S T U V W X Y Z