Song name
# A B C D E F G H I J K L M N O P Q R S T U V W X Y Z

Saosin - Its So Simple tab

CHORUS:
e|-----------------------------2222------|
B|-----------------------------3333------|
G|-----------------------------2222------|
D|-44444444-7777777-7-44444444-0000-2222-| x2
A|-44444444-7777777-7-44444444-0000-2222-|
E|-44444444-7777777-7-44444444-0000-2222-| 

POST-CHORUS:
e|----|
B|----|
G|----|
D|-4~-|
A|-4~-|
E|-4~-|

VERSE:
e|------2~----------------------------------22------|
B|------3~----------------------------------33------|
G|------2~----------------------------------22------|
D|-4~---0~---4~---2~---4444---7777---4444---00---22-|
A|-4~---0~---4~---2~---4444---7777---4444---00---22-|
E|-4~---0~---4~---2~---4444---7777---4444---00---22-|

PRE-CHORUS:
e|-2~--------2~------|
B|-3~--------3~------|
G|-2~--------2~------|
D|-0~---4~---0~---4~-|
A|-0~---4~---0~---4~-|
E|-0~---4~---0~---4~-|

CHORUS x2

POST-CHORUS

VERSE

PRE-CHORUS

CHORUS x2

BRIDGE: (no idea, so just play verse)
e|-22222222----------------------------|----|
B|-33333333----------------------------|----|
G|-22222222----------------------------|----|
D|-00000000-22222222-44444444-44444444-|-4~-|
A|-00000000-22222222-44444444-44444444-|-4~-|
E|-00000000-22222222-44444444-44444444-|-4~-|

CHORUS x2

Dropped tuning down to D and added bridge, also fixed up one chord.

| /  slide up
| \  slide down
| h  hammer-on
| p  pull-off
| ~  vibrato
| +  harmonic
| x  Mute note
===============================================================================
Tap to rate this tab
 
# A B C D E F G H I J K L M N O P Q R S T U V W X Y Z