Song name
# A B C D E F G H I J K L M N O P Q R S T U V W X Y Z

Sappy - Imaginary Paradise tab

Sappy - Imaginary Paradise

I'm not sure what tuning Sappy plays it in, so I've just stuck with standard tuning.

Guitar
======

Intro (After bass intro, with distortion):

e--7--(7)-(7)-(7)-(7)-(7)-(7)----------------------------6--(6)-(6)-(6)-(6)-(6)-(6)-3--(3)-(3)-5--(5)-(5)|
a--9--(9)-(9)-(9)-(9)-(9)-(9)-5--(5)-(5)-(5)-(5)-(5)-(5)-8--(8)-(8)-(8)-(8)-(8)-(8)-5--(5)-(5)-7--(7)-(7)|
d--9--(9)-(9)-(9)-(9)-(9)-(9)-7--(7)-(7)-(7)-(7)-(7)-(7)-8--(8)-(8)-(8)-(8)-(8)-(8)-5--(5)-(5)-7--(7)-(7)|
g-----------------------------7--(7)-(7)-(7)-(7)-(7)-(7)-------------------------------------------------|
b--------------------------------------------------------------------------------------------------------|
E--------------------------------------------------------------------------------------------------------|


Verse (Clean):

e--7--(7)-(7)-(7)-(7)-(7)-(7)----------------------------6--(6)-(6)-(6)-(6)-(6)-(6)-3--(3)-(3)-5--(5)-(5)|
a--9--(9)-(9)-(9)-(9)-(9)-(9)-5--(5)-(5)-(5)-(5)-(5)-(5)-8--(8)-(8)-(8)-(8)-(8)-(8)-5--(5)-(5)-7--(7)-(7)|
d--9--(9)-(9)-(9)-(9)-(9)-(9)-7--(7)-(7)-(7)-(7)-(7)-(7)-8--(8)-(8)-(8)-(8)-(8)-(8)-5--(5)-(5)-7--(7)-(7)|
g-----------------------------7--(7)-(7)-(7)-(7)-(7)-(7)-------------------------------------------------|
b--------------------------------------------------------------------------------------------------------|
E--------------------------------------------------------------------------------------------------------|


Chorus:

e--7-7---------5----7-7---------5----7-7---------5----3--3-3---------|
a--9-9---5-5---7----9-9---5-5---7----9-9---5-5---7----5--5-5-3-3-3-3-|
d--9-9---7-7---7----9-9---7-7---7----9-9---7-7---7----5--5-5-5-5-5-5-|
g--------7-7--------------7-7--------------7-7---------------5-5-5-5-|
b--------------------------------------------------------------------|
E--------------------------------------------------------------------|


Bridge (Distortion):

e--7-------6---3--5--|
a------5-------------|
d--------------------|
g--------------------|
b--------------------|
E--------------------|


Outro (Distortion):

e--7--------------------------|(7)-(7)-(7)-(7)-(7)-(7)
a--9--------------------------|(9)-(9)-(9)-(9)-(9)-(9)
d--9--------------------------|(9)-(9)-(9)-(9)-(9)-(9)
g-----------------------------|
b-----------------------------|
E-----------------------------|


Song:

Guitar: Intro (x2) - Verse (x2) - Chorus (x2) - Intro (x1) - Verse (x2) - Chorus (x2) - 
Bridge (x4) - Chorus (x4) - Outro (x4)
Tap to rate this tab
 
# A B C D E F G H I J K L M N O P Q R S T U V W X Y Z