Song name
# A B C D E F G H I J K L M N O P Q R S T U V W X Y Z

Sara Bareilles - King Of Anything tab

King of Anything
Sara Bareilles


Capo on 6th Fret

Intro & Verse       

 G		  Am		   E		    C       D
|----------------|--------0-------|----------------|----------------|
|----0---3---0---|----1-------1---|----0---3---0---|----1-1-3---1---|
|0-----0---------|0---------------|0---------------|0---------------|
|----------------|----------------|----------------|--------0---0---|
|----------2---0-|----------2-----|----------2---3-|------3---------|
|3---------------|--------------0-|----------------|----------------|


Pre-Chorus
 Am		  C		   Em		    D
|----------------|----------------|----0-----------|----------------|
|----------------|----1-----------|--0-------------|----3-----------|
|----2-----------|--0-------------|----------------|--2-------------|
|--2-------------|----------------|3---------------|0---------------|
|0---------------|3---------------|----------------|----------------|
|----------------|----------------|----------------|----------------|


Chorus

Em - C - G - D


Bridge

D	 D	   Am
   All my life I tried
	 Em		     C
to make everybody happy while I
	D	 Am
just hurt and hide
	      Am	 G		C   D
Waiting for someone to tell me it's my turn
	  Intro
to decide.
Tap to rate this tab
 
# A B C D E F G H I J K L M N O P Q R S T U V W X Y Z