Song name
# A B C D E F G H I J K L M N O P Q R S T U V W X Y Z

Sara Bareilles - Gravity Acoustic tab

This is my first public tablature. I have transcribed the basic chords for the Derik
Nelson (youtube artist) acoustic version of Gravity by Sara Bareilles. It was a really nice
arrangement and I was frustrated with not having tabs for it. I think it is about 95% 
correct, but please let me know what you think. ENJOY!

NOTES:
-Use thumb (wrap around neck) on low E string notes for easier fingering
-Capo on 1st Fret

(/) Slide Up  (\) Slide Down  (h) Hammer On  (p) Pull Off  (b) Bend (r) Release (v) Vibrato

Intro

E|------------|
B|--2h4p2-----|
G|--4---------|
D|--2---------|
A|------------|
E|------------|

Verse

E|--0--0--0--0------|
B|--0--5--0--2h4p2--|
G|--4--4--1--4------|
D|--2--4--2--2------|
A|--------2---------|
E|--2--4--0---------|

Chorus

E|--0--0--0--0--0--|--0--0--0--0--|--0--0--|--|
B|--0--5--0--0--0--|--0--5--0--0--|--0--5--|--|
G|--4--4--6--4--2--|--4--4--1--2--|--2--4--|--|
D|--2--4--6--4--2--|--2--4--2--2--|--4--6--|--|
A|--------4--2--0--|--------2--0--|--------|--|
E|--2--4-----------|--2--4--0-----|--2--4--|--|

VIDEO:
http://www.youtube.com/watch?v=kDnudMA8U-o
Tap to rate this tab
 
# A B C D E F G H I J K L M N O P Q R S T U V W X Y Z