Song name
# A B C D E F G H I J K L M N O P Q R S T U V W X Y Z

Sara Groves - Something Changed chords

Highlighted       Show chord diagrams
A   C#/A  E   A     D    A       Bm

------0---------0---2-0-----------------------------------------|
--2---2---0---2-----3----2--0----3------------------------------|
--2---2---2---2-----2----2----2--4------------------------------|
----------3---------0------------4------------------------------|
--0---4-------0----------0-------2------------------------------|
----------------------------------------------------------------|


Verse
A           C#/A    E        A          D     A         Bm
Something changed inside me broke wide open all spilled out
      D       E/D           A       C#/A    E        A          D
Till I had no doubt       that something changed

A           C#/A    E        A          D     A         Bm
Never would have believed it till I felt it in my own heart
  (C#) D       E/D        A         C#/A    E    A    D   A  Bm
In the deepest part         the healing came


Chorus
    E    D    A
And I cannot make it
    E    D    A
And I cannot fake it
    E    D    A
And I can't afford it
    E    D    A
But it's mine


Verse
A        C#/A    E    A    D          A     Bm
Something so amazing in a heart so dark and dim
   (C#)  D               A      C#/A     E    A    D   A  Bm
When a wall falls down and the light comes in


Chorus
    E    D    A
And I cannot make it
    E    D    A
And I cannot fake it
    E    D    A
And I can't afford it
    E    D    A
But it's mine


guitar solo
--------12------------------------10--9--------9-------------9---------|
--9h10-----10---9h10--12--10------------10s12----12----12-10---10---10-|
-------------------------------11-------------------11-----------11----|
-----------------------------------------------------------------------|
-----------------------------------------------------------------------|
-----------------------------------------------------------------------|


--------12-----12-----------9------10--9--------9-----------------------|
--9h10-----10-----9h10--12----10---------10s12----12-12--10-10----------|
---------------------------------------------------------11-11s14--9h11-|
------------------------------------------------------------------------|
------------------------------------------------------------------------|
------------------------------------------------------------------------|
Tap to rate this tab
# A B C D E F G H I J K L M N O P Q R S T U V W X Y Z