Song name
# A B C D E F G H I J K L M N O P Q R S T U V W X Y Z

Sarah Blackwood - Bad Job Jesus tab

http://www.myspace.com/sarahblackwood


I tabbed this by ear, really, so I'm sorry if there are any mistakes. Feel free to 
correct them!

To get the strumming right, listen to the song. It's really easy to pick up!

Chords used:

Em     022000
Em7/B  022300
Asus2  002200
A7     002020
C      032010
G      320033
B      224442

Intro/solo (in the back, play Em and E7/B)
-------------------------!-----------------------|
-------------------------!-----------------------|
-------------------------!--------2--3--2--0--2--|
-------------------------!-----0-----------------|
-------2--3--2--0--3--2--!--3--------------------|
-0--3--------------------!-----------------------|


-------------------------!-----------------------|
-------------------------!---5--3----------------|
-------------------------!---------4--3--2--0----|
-------------------------!---------------------2-|
-------2--3--2--0--3--2--!-----------------------|
-0--3--------------------!-----------------------|




Em   Em7/B  Em   Em7/B
Well now, I just wait to go
But the stench in the air
Turned my head to the right
I cannot believe it I did it again
A dead boy by my side.

Em        Em7/B           E           Em7/B
I pray to the Lord, don't remember at all
I don't know what I've done
With a smile on my face he comes back to me
We only had some fun.
Em
Had some fun

Em        C      G
Oh it's a bad job, Jesus
A7        Asus2
Don't you know?
C                G
It takes a whole life
       B
To say no
          C      G
Oh it's a bad job, Jesus
Asus2
You gotta know

-------------------------!-----------------------|
-------------------------!---5--3----------------|
-------------------------!---------4--3--2--0----|
-------------------------!---------------------2-|
-------2--3--2--0--3--2--!-----------------------|
-0--3--------------------!-----------------------|


Em         Em7/B      Em       Em7/B
I open the window and let her soul drift
To the place beyond
I always tried to be a godblessed girl
Until the job is done.
On the tv the people call me devil girl
And nobody's friend.
The angels watch me in my deadly world
And now I'm ready again.
Em
So here I go


Chorus:

Em        C      G
Oh it's a bad job, Jesus
A7        Asus2
Don't you know?
C                G
It takes a whole life
       B
To say no
          C      G
Oh it's a bad job, Jesus
Asus2
You gotta know

Intro/solo (in the back, play Em and E7/B)
-------------------------!-----------------------|
-------------------------!-----------------------|
-------------------------!--------2--3--2--0--2--|
-------------------------!-----0-----------------|
-------2--3--2--0--3--2--!--3--------------------|
-0--3--------------------!-----------------------|


-------------------------!-----------------------|
-------------------------!---5--3----------------|
-------------------------!---------4--3--2--0----|
-------------------------!---------------------2-|
-------2--3--2--0--3--2--!-----------------------|
-0--3--------------------!-----------------------|


Em
Here I go

Em        C      G
Oh it's a bad job, Jesus
A7        Asus2
Don't you know?
C                G
It takes a whole life
       B
To say no
          C      G
Oh it's a bad job, Jesus
Asus2
You gotta know
       C    G                     B
It's a bad world, come and let me show


Outro (acapella):

Oh it's a bad job, Jesus
Don't you know?
It takes a whole life
Come, let me show


----------------------------

Enjoy! :)

Valecita
Tap to rate this tab
# A B C D E F G H I J K L M N O P Q R S T U V W X Y Z