Song name
# A B C D E F G H I J K L M N O P Q R S T U V W X Y Z

Sarah Blasko - Woman By The Well tab

Again, just the basics of the song, I'm sure you guys can figure out where it all fits :)
If you find anything wrong, let me know.
Cheers.



e|-------------------------|
B|-------1-----------1-----|
G|---0-----0-----0-----0---|
D|-----2-----2-----2-----2-|
A|-3-----------3-----------|
E|-------------------------|

e|-------------------------|
B|-------1-----------1-----|
G|---0-----0-----0-----0---|
D|-----2-----2-----2-----2-|
A|-0-----------0-----------|
E|-------------------------|

e|-------------------------|
B|-------1-----------1-----|
G|---0-----0-----0-----0---|
D|-----2-----2-----2-----2-|
A|-------------------------|
E|-3-----------3-----------|



Lately i find that you know me
Better than i know myself,
Like a woman who's lost herself
By the water's edge,
Her reflection was taken by the tide,

I just want you around,
I want you around,

Seconds and hours pass slowly
I move them all by myself,
I can feel that i'm aging,
My hair is turning black,
There's a rythm behind it
That you can't know,

Still, i want you around,
'cause i'm more lost than found,

Shine a light on my misery,
Wake the child from her sleep,
Wipe the eyes of the dewy morning,
The waters so deep.
Tap to rate this tab
 
# A B C D E F G H I J K L M N O P Q R S T U V W X Y Z