Guitaretab - guitar tabs
Song name
# A B C D E F G H I J K L M N O P Q R S T U V W X Y Z

Sarah Brightman - Time To Say Goodbye tab

I've already posted a tab of this song, this is an improvement...

   Time to  say  good-bye
e|------------------------|
b|------------------------|
g|--0---5~~--4----7----5--|
d|------------------------|
a|------------------------|
E|------------------------|

   Pa-es-i che non ho mai
e|------------------------|
b|------------------------|
g|-5--7--9--7--10---9--5--|
d|------------------------|
a|------------------------|
E|------------------------|

   ve-du-to  e vis-su-to con te
e|-----------------------------|
b|-10--9--5---10---9--5---2--5-|
g|-----------------------------|
d|-----------------------------|
a|-----------------------------|
E|-----------------------------|

   a-des-so  s li vivr-
e|------------------------|
b|-0--3---2--0------------|
g|--------------2--1---0--|
d|------------------------|
a|------------------------|
E|------------------------|
[ Tab from: http://www.guitaretab.com/s/sarah-brightman/182101.html ]
  Con te par-ti-r
e|------------------------|
b|------------------------|
g|-5--5---4--7--5---------|
d|------------------------|
a|------------------------|
E|------------------------|

  su na-vi per ma-ri
e|------------------------|
b|------------------------|
g|-5--7-9---9--9--9-------|
d|------------------------|
a|------------------------|
E|------------------------|

  che io  lo so
e|------------------------|
b|------------------------|
g|-7--10--9--5------------|
d|------------------------|
a|------------------------|
E|------------------------|

   no, no non  es-is-to-no pi
e|-----------------------------|
b|-10--9---5---10-9--5--2--5---|
g|-----------------------------|
d|-----------------------------|
a|-----------------------------|
E|-----------------------------|

  con te io li ri-vivr-
e|------------------------|
b|-0--3---2--0------------|
g|--------------2--1---0--|
d|------------------------|
a|------------------------|
E|------------------------|
Related for Time To Say Goodbye tab