Sarah Jarosz - My Muse tab

Tuning:	Standard (EADGBE)


Verse:

  Pick, Let Ring, Mute G and D strings with middle finger

E --0-----|--0-----|--0-----|--0-----|--0---2-|--0---2-|--0---2-|--0---0-|
B ----2---|----2---|----2---|----2-4-|----4---|----4---|----4---|----4---|
G --------|--------|--------|--------|--------|--------|--------|--------|
D --------|--------|--------|--------|--------|--------|--------|--------|
A 0-------|0-------|0-------|0-------|0-------|0-------|0-------|0-------|
E --------|--------|--------|--------|--------|--------|--------|--------|


Chorus:

  Strum

E 2-------|--------|2-------|--------|2-------|--------|2-------|--------|
B 2---X-X-|--X-X-X-|2---X-X-|--X-X-X-|2---X-X-|--X-X-X-|2---X-X-|--X-X---|
G 2-------|--------|2-------|--------|2-------|--------|2-------|--------|
D 4-------|--------|3-------|--------|2-------|--------|1-------|--------|
A --------|--------|--------|--------|--------|--------|--------|--------|
E --------|--------|--------|--------|--------|--------|--------|--------|

E ------0-|--0-----|--------|--------|--------|--------|--------|--------|
B ----3---|--3-XX-|--X-X-X-|--X-X---|2---2-3-|--3---2-|--2-2-2-|2-0-----|
G --2-----|--2-----|--------|--------|2---2-2-|--2---2-|--------|----2---|
D 0-------|--0-----|--------|--------|2---2-2-|--2---2-|--------|--------|
A --------|--------|--------|--------|0---0-0-|--0---0-|--------|--------|
E --------|--------|--------|--------|--------|--------|--------|--------|

Tap to rate this tab
 
# A B C D E F G H I J K L M N O P Q R S T U V W X Y Z