Song name
# A B C D E F G H I J K L M N O P Q R S T U V W X Y Z

Sarah Mclachlan - Ice tab

Song: Ice
Artist: Sarah McLachlan
Tabbed by: Claire Winter
Email: mr_claire@hotmail.com

Tuning:             
CAPO FIRST FRET     Fingering:

E                   T = thumb
B                   I = index
G                   M = middle
E                   R = ring
B
E



I won't tab it all in order with repeats etc, i'll just give the basic sections and you
can work out the order by the song! I've added fingering notes for speed. Hope it's ok.
Any questions please email me!

VERSE

   T M I M R I M R T I M T I M T I   T M I M R T I M T I M T I   T I
|----------0-----0-----------------|---------0-----------------------|
|----0---0-----0-------0-----0-----|---0---0-------0-----0-----------|
|------4-----2-------2-----2-----2-|-----2-------2-----2-----0h2---2-|
|------------------3-----2---------|-----------3-----2-----2---------|
|------------------------------0---|-----------------------------0---|
|--0-------------------------------|-0-------------------------------|

   T I T M T I T I T I T M T I T M   T I T M T I T I T I T M T I T I
|--------0-------------------------|-------0---------------0---------|
|------------0-----------0-------0-|-----------0-------0-------0-----|
|----2-----2-----2---2-------2-----|---2-----2-----2---------2-----2-|
|------2-------2-------3-------3---|-----2-------2-------2-------2---|
|--3---------------1---------------|-0---------------0---------------|
|--------------------------3-------|---------------------------------|

CHORUS

   T I T M T I T I T I T M T I T I   T M I M R I M R T I M T I M T I
|--------0---------------0---------|---------0-----0-----------------|
|------------0---------------0-----|---0---0-----0-------0-----0-----|
|----2-----2-----2---2-----2-----2-|-----4-----2-------2-----2-----2-|
|------3-------3-------2-------2---|-----------------3-----2---------|
|--1---------------0---------------|-----------------------------3---|
|----------------------------------|-0-------------------------------|
(repeat)


(...only a fools here...)
|--------0---------------0---------|
|------------0---------------0-----|
|----2-----2-----2---2-----2-----2-|
|------3-------3-------2-------2---|
|--1---------------0---------------|
|----------------------------------|

BRIDGE

   T I T I T I T I T I T I T I T I  ...ETC...
|----0---0---0---0---0---0---0---0-|--------0-------0-------0-------0-|
|----------------------------------|----4-------4-------4-------4-----|
|------2-------2-------2-------2---|------2-------2-------2-------2---|
|--3-------3-------3-------3-------|--2-------2-------2-------2-------|
|----------------------------------|----------------------------------|
|----------------------------------|----------------------------------|

|--------0-------0-------0-------0-|-------0-------0---0---0---0---0-|
|----3-------3-------3-------3-----|---0-------0---------------------|
|------2-------2-------2-------2---|-----2-------2-------2-------2---|
|--1-------1-------1-------1-------|-0-------0-------4-------4-------|
|----------------------------------|---------------------------------|
|----------------------------------|---------------------------------|
Tap to rate this tab
# A B C D E F G H I J K L M N O P Q R S T U V W X Y Z