Song name
# A B C D E F G H I J K L M N O P Q R S T U V W X Y Z

Sarah Mclachlan - Adia tab

Solo with Capo on 3rd fret

e-1-6-8-9-8-6-1-4------1-2-4--4-2-1-------1--4-----3----------------|
B--------------------2--------------1-2-4----------3----------------|
G--------------------------------------------------4----------------|
D--------------------------------------------------3----------------|
A--------------------------------------------------5----------------|
E--------------------------------------------------3----------------|

Solo without Capo on 3rd fret

E-4-9-11-12-11-9-4-7------4-5-7--7-5-4-------4--7--6----------------|
B-----------------------5--------------4-5-7--7----6----------------|
G--------------------------------------------------7----------------|
D--------------------------------------------------6----------------|
A--------------------------------------------------8----------------|
E--------------------------------------------------6----------------|
Tap to rate this tab
# A B C D E F G H I J K L M N O P Q R S T U V W X Y Z