Song name
# A B C D E F G H I J K L M N O P Q R S T U V W X Y Z

Sarah Mclachlan - I Will Not Forget You chords

                                          Artist - Sarah Mclachlan
                                         **************************
                                        Song - I Will Not Forget You
                                       ******************************
                                              Album - Solace
                                             ****************
                                           Tabbed By - Ayreon77
                                          **********************


NO CAPO

INTRO
******
Dm Bb F

Dm Bb F C

-----------------------------------------------------------
VERSE 1
********
  Dm                    Bb             F             Am
I remember the nights I watched as you lay sleeping
     Dm   Bb                       F      C
Your body gripped by some far away dream
Dm                 Bb           F          Am
 Well I was so scared and so in love then
       Dm             F                    C
And so lost in all of you that I had seen

    Eb                        Dm
But no one ever talked in the darkness
   Cm               Dm
No voice ever added fuel to the fire
   Eb                      Dm
No light ever shone in the doorway
Bb                    C
Deep in the hollow of earthly desires
    Eb                         Dm
But if in some dream there was brightness
Cm                Dm
If in some memory some sort of sign
    Eb                      Dm
And flesh be revived in the shadows
Bb                       C
Blessed our bodies would lay so entwined


-----------------------------------------------------------
CHORUS
*******
    F         Am         Bb
And I will oh I will not forget you
F          Am           Bb
Nor will I ever let you go
F         Am         Bb
I will oh I will not forget you

Am

-----------------------------------------------------------
VERSE 2
********
  Dm               Bb                     F         Am
I remember how you left in the morning at daybreak
Dm        Bb                       F    Am          
  Mmmm So silent you stole from my bed
      Dm          Bb      F                    Am
To go back to the one who possesses your soul
 Dm   Bb                      F      C
And I back to the life that I dread

     Eb                       Dm
So I ran like the wind to the water
Cm                    Dm
Please don't leave me again I cried
      Eb                        Dm
And I threw bitter tears at the ocean
    Bb                         F
But all that came back was the tide


-----------------------------------------------------------
CHORUS
*******
-----------------------------------------------------------
03:15
I,m Thinking There Is 3 Guitars Doing Solos, one high and one Low. With Delay.
SOLO - Gm Bb F - Gm Bb F C - Gm Bb F - Gm Bb F C
*****
 GUITAR 1 - LOW
|----------------|------|-----------------|------|-----------------|------|
|----------------|------|-----------------|------|-----------------|------|
|-------------h--|------|------------h----|------|------------h----|------|
|-5--7-5-3---5-7-|------|-5--7-5-3--0-3-3-|------|-5--7-5-3--0-3-3-|------|
|----------------|-0--3-|-----------------|-0--3-|-----------------|-0--3-|
|----------------|------|-----------------|------|-----------------|------|
|                                                                         |
|GUITAR 2 - HIGH - ELECTRIC                                               |
|------------h---|------|------------h----|------|------------h-----h-----|
|-8-10-8-6--8-10-|------|-8-10-8-6--3-6-6-|------|-8-10-8-6--3-6-6-8-10---|
|----------------|------|-----------------|------|------------------------|
|----------------|------|-----------------|------|------------------------|
|----------------|------|-----------------|------|------------------------|
|----------------|------|-----------------|------|------------------------|
|                                                                         |
|GUITAR 3 - ELECTRIC                                                      |
|-------------------------------------------------s-s--s-s----------------|
|-----------------------------------------------10\8/10\8/10--------------|
|-------------------------------------------------------------------------|
|-------------------------------------------------------------10----7-----|
|---------------------------------------------------------fade in vol-----|
|-------------------------------------------------------------------------|


 GUITAR 1
|-----------------|
|-----------------|
|-----------------|
|-5--7-5-3--0-3-3-|
|-----------------|
|-----------------|
|                 |
|GUITAR 2         |
|-----------------|
|-8-10-8-6--3-6-6-|
|-----------------|
|-----------------|
|-----------------|
|-----------------|


-----------------------------------------------------------
CHORUS X 2 1/2
*******
-----------------------------------------------------------


ENJOY.........
Tap to rate this tab
 
# A B C D E F G H I J K L M N O P Q R S T U V W X Y Z