Song name
# A B C D E F G H I J K L M N O P Q R S T U V W X Y Z

Sarah Mcleod - Private School Kid tab

This is my first tab so be nice :)

Play the intro and verses like a bar chord but try to leave out the top 2 strings.

Intro
e|-------------------------------------------------------------------------|
B|-------------------------------------------------------------------------|
G|--9-----9-----9-----9--7-------------------------------------------------|
D|--11----11----11----11-9-------------------------------------------------|
A|--11----11----11----11-9-------------------------------------------------|
E|--9-----9-----9-----9--7-------------------------------------------------|

Verse
e|-------------------------------------------------------------------------|
B|-------------------------------------------------------------------------|
G|--9-----------7-----5-----9------------9-----------7-----5-----9---------|
D|--11----------9-----7-----11-----------11----------9-----7-----11--------|
A|--11----------9-----7-----11-----------11----------9-----7-----11--------|
E|--9-----------7-----5-----9------------9-----------7-----5-----9---------|

Chorus

e|--7-----5-----5----------7-----5-----5-----------------------------------|
B|--9-----7-----5----------9-----7-----5-----------------------------------|
G|--9-----7-----6----------9-----7-----6-----------------------------------|
D|--9-----7-----7----------9-----7-----7-----------------------------------|
A|--7-----5-----7----------7-----5-----7-----------------------------------|
E|--------------5----------------------5-----------------------------------|

Verse

Chorus x2

The chords played behind the solo is just the chorus over and over.

Solo

The solo is fairly simple and you can basically improvise your own or listen to the song 
figure out the original one. It's a minor Pentatonic shape on the 9th fret if that 
sense.
You can improvise using any of these notes, but the original solo is played throughout 
e, B, G, D strings.
e|---------------------------9-12------------------------------------------|
B|----------------------9-12-----------------------------------------------|
G|-----------------9-11----------------------------------------------------|
D|------------9-11---------------------------------------------------------|
A|-------9-11--------------------------------------------------------------|
E|--9-12-------------------------------------------------------------------|

Then after the solo it finishes wih the chorus x2.

Thanks for having a look. Please comment or rate :)
Tap to rate this tab
 
# A B C D E F G H I J K L M N O P Q R S T U V W X Y Z