Song name
# A B C D E F G H I J K L M N O P Q R S T U V W X Y Z

Sarah Mcleod - Private School Kid tab

Artist: Sarah McLeod
Song: Private School Kid
Album: Beauty Was A Tiger

this is a great song by Sarah McLeod, the former lead singer of The Superjesus. i 
got the solo yet - Chris Cheney (from The Living End) i think plays it so its pretty hard - if 
could do the solo then that would be great. anyway, here it is:

Intro: (x 2) - C#m
e---------------------------------------------------|
B---5-5--5--5-5--5--5-5--5--5--4--------------------|
G---6-6--6--6-6--6--6-6--6--6--4--------------------| (repeat)
D---6-6--6--6-6--6--6-6--6--6--4--------------------|
A---4-4--4--4-4--4--4-4--4--4--4--------------------|
E---------------------------------------------------|

Verse: (x 2) - uses same rhythm as the intro - C#m, C#m, B, A, C#m
e-----|-----|----|------|---------|
B--5--|--5--|----|---0--|--5--4---|
G--6--|--6--|--4-|---2--|--6--4---|
D--6--|--6--|--4-|---2--|--6--4---|
A--4--|--4--|--2-|---0--|--4--4---|
E-----|-----|----|------|---------|

Chorus: (x 2) - E, D, A, A
e------|-------|-------|-------|
B------|-------|---5---|---5---|
G--9---|---7---|---6---|---6---|
D--9---|---7---|---7---|---7---|
A--7---|---5---|---7---|---7---|
E------|-------|---5---|---5---|

Interlude: (x 1) - A
e------------------------------------------|
B------------------------------------------|
G--2-2-2-2-2-2-2-2-2-2-2-2--2-2-2-2--------|
D--2-2-2-2-2-2-2-2-2-2-2-2--2-2-2-2--------|
A--0-0-0-0-0-0-0-0-0-0-0-0--0-0-0-0--------|
E------------------------------------------|

Repeat Intro x 2

Repeat Verse x 2

Repeat Chorus x 4

Repeat Interlude x 1

Bridge: (x 4) - same chords as the chorus - E, D, A, A

Solo: i haven't got the solo yet, but am still working on it. if anyone can do it that would be great

Repeat Chorus x 4

then Repeat Interlude x 1


there you go all done - its a nice song

if you have any comments or suggestions then feel free to email me at
d__o__a@hotmail.com
Tap to rate this tab
 
# A B C D E F G H I J K L M N O P Q R S T U V W X Y Z