Song name
# A B C D E F G H I J K L M N O P Q R S T U V W X Y Z

Sarah Polley - Dog Track Drizzle tab

Sarah Polley is a Canadian actress.  She sang on the Sweet Hereafter soundtrack,
wrote the lyrics to two of the songs, and also starred in the movie, directed by
Atom Egoyan, which was nominated for two Academy Awards.  She is best known for
her role as Sara Stanley in the canadian series Road to Avonlea.  Sarah Polley is
also a political activist.  She is also a poet. The official website for the
Sweet Hereafter is http://www.finelinefeatures.com/sweet/index.html
 
-------------------------------------------------------------------------------
			  Dog Track Drizzle by Sarah Polley
-------------------------------------------------------------------------------

Tabbed by:Susan Jupinder
Email:xylophonesusan2yahoo.ca

Tuning:standard

From The Sweet Hereafter Soundtrack
Music by Mychael Danna
Lyrics by Sarah Polley
featuring vocals by Sarah Polley

Intro:
e|---------------------------------| 
B|--------3------3------2------2---| 
G|------0------0------0------0-----| 
D|----0------0------2------2-------| 
A|--2------2------0------0---------| 
E|---------------------------------| 
    G/B           A7



Verse 1:
e|-----------------------------------| 
B|--------3------3-------2-------2---| 
G|------0------0-------0-------0-----| 
D|----0------0-------2-------2-------| 
A|--2------2-------0-------0---------| 
E|-----------------------------------| 
    G/B            A7          x4


e|--------------------------0-------| 
B|--------3-------3-------2---2---2-| 
G|------0-------0-------0-------0---| 
D|----0-------0-------2-------------| 
A|--2-------2-------0---------------| 
E|----------------------------------| 
    G/B             A7


e|-----------------------------------| 
B|--------3-------3-------2--3-------| 
G|------0-------0-------0------0---0-| 
D|----0-------0-------2--------------| 
A|--2-------2-------0------------2---| 
E|-----------------------------------| 
    G/B             A7



Chorus 1:
e|---------------------------------| 
B|---------------------------------| 
G|--------2------2-------0-------0-| 
D|------0------0-------0-------0---| 
A|----2------2-------2-------2-----| 
E|--3------3-------3-------3-------| 
    G              G            x2

e|-------------------------------------------| 
B|-----------------------------------------0-| 
G|--------4------4-------2-------2-------0---| 
D|------0------0-------0-------0-------0-----| 
A|----2------2-------2-------2-------2-------| 
E|--3------3-------3-------3-------3---------| 
    G              G               G 


Verse 2:
e|------------------------------------| 
B|--------3-------3-------2-------2---| 
G|------0-------0-------0-------0-----| 
D|----0-------0-------2-------2-------| 
A|--2-------2-------0-------0---------| 
E|------------------------------------| 
    G/B             A7                    


e|-------------------------0--------| 
B|--------3------3-------2---2---2--| 
G|------0------0-------0-------0----| 
D|----0------0-------2--------------| 
A|--2------2-------0----------------| 
E|----------------------------------| 
    G/B            A7           x4   

e|-------------------------0--------| 
B|--------3------3-------2---2------| 
G|------0------0-------0---------0--| 
D|----0------0-------2---------2----| 
A|--2------2-------0----------------| 
E|----------------------------------| 
    G/B            A7                  


Chorus 2:
e|---------------------------------| 
B|---------------------------------| 
G|--------2------2-------0-------0-| 
D|------0------0-------0-------0---| 
A|----2------2-------2-------2-----| 
E|--3------3-------3-------3-------| 
    G              G            x4

e|-------------------------------------------| 
B|-----------------------------------------0-| 
G|--------4------4-------2-------2-------0---| 
D|------0------0-------0-------0-------0-----| 
A|----2------2-------2-------2-------2-------| 
E|--3------3-------3-------3-------3---------| 
    G              G               G 


Verse 3:
e|-------------------------0--------| 
B|--------3------3-------2---2---2--| 
G|------0------0-------0-------0----| 
D|----0------0-------2--------------| 
A|--2------2-------0----------------| 
E|----------------------------------| 
    G/B            A7           x7

e|----------0------------------------| 
B|--------3---3---3-------2--2-------| 
G|------0-------0-------0------0---0-| 
D|----0---------------2--------------| 
A|--2---------------0------------0---| 
E|-----------------------------------| 
    G/B             A7           


Chorus 3:
e|---------------------------------| 
B|---------------------------------| 
G|--------2------2-------0-------0-| 
D|------0------0-------0-------0---| 
A|----2------2-------2-------2-----| 
E|--3------3-------3-------3-------| 
    G              G            x2

e|---------------------------------| 
B|---------------------------------| 
G|--------4------4-------2-------2-| 
D|------0------0-------0-------0---| 
A|----2------2-------2-------2-----| 
E|--3------3-------3-------3-------| 
    G              G            x3

e|------------| 
B|----------0-| 
G|--------0---| 
D|------0-----| 
A|----2-------| 
E|--3---------| 
    G
Tap to rate this tab
# A B C D E F G H I J K L M N O P Q R S T U V W X Y Z