Song name
# A B C D E F G H I J K L M N O P Q R S T U V W X Y Z

Sarasine - Untitled tab

e|-------------7---------------------------------------7-9-7---7-9-12-15b-12-|
B|---5---5-7b9---7-5-7p5-----5-7b9-7-5-----7-7-7-7-5-9-------9---------------|
G|-6---6-----------------6-6-----------6-6-----------------------------------|
D|---------------------------------------------------------------------------|
A|---------------------------------------------------------------------------|
E|---------------------------------------------------------------------------|

e|-9p7-9---7---7----------------7---7-9p7---------------9-12-11-9-7----------|
B|-----------9---7~---5---5-7b9---9-------9-9-9p7-9-7b9-------------9p7h9----|
G|------------------6---6----------------------------------------------------|
D|---------------------------------------------------------------------------|
A|---------------------------------------------------------------------------|
E|---------------------------------------------------------------------------|

e|---7---7---7---7---7---7-9-7-9-14b16-12-9-7---7---7-----------------7h9p7-9|
B|-9---9---9---9---9---9----------------------9---9---9\7-5-7b9-7-5-9--------|
G|---------------------------------------------------------------------------|
D|---------------------------------------------------------------------------|
A|---------------------------------------------------------------------------|
E|---------------------------------------------------------------------------|

e|---9-9-9-7-14-14-12-11-7---------------------------------------------------|
B|-9-----------------------9-5h7p5-------------------------------------------|
G|---------------------------------6-4-6-------------------------------------|
D|---------------------------------------------------------------------------|
A|---------------------------------------------------------------------------|
Tap to rate this tab
 
# A B C D E F G H I J K L M N O P Q R S T U V W X Y Z