Song name
# A B C D E F G H I J K L M N O P Q R S T U V W X Y Z

Sarcofago - The Black Vomit tab

The Black Vomit
by Sarcofago
from the I.N.R.I. album
tabbed by Walter Viadana
version 666 Jul.09

Tune guitar to E

Tremolo: ''''''

Riff 1 
|--------------------------------|
|--------------------------------|
|--------------------------------|
|---5''''''8'7'8'5'''''10'7'8'---|
|---5''''''8'7'8'5'''''10'7'8'---|
|---3''''''6'5'6'3''''''8'5'6'---|

Riff 2
|---------------------------------------|
|---------------------------------------|
|---------------------------------------|
|---9''''''''''4'''9'''''''''7'''5'''---|
|---7''''''''''2'''7'''''''''5'''3'''---|
|---------------------------------------|

Riff 3 (Fast)
|-----------------------------------------------------------|
|-----------------------------------------------------------|
|-----------------------------------------------------------|
|---5-5-5-5-5-8---5-5-5-5-5-6---5-5-5-5-5-8---5-5-5-5-3-2---|
|---5-5-5-5-5-8---5-5-5-5-5-6---5-5-5-5-5-8---5-5-5-5-3-2---|
|---3-3-3-3-3-6---3-3-3-3-3-4---3-3-3-3-3-6---3-3-3-3-1-0---|

Riff 2

Riff 3

Fill
|-------------------|
|-------------------|
|-------------------|
|---5-------8-7-8---|
|---5-------8-7-8---|
|---3-------6-5-6---|

Riff 4 (Fast)
|----------------------------|
|----------------------------|
|----------------------------|
|---9-9-9-9-9-9-9-9-9-9-12---|
|---7-0-0-7-0-0-7-0-0-7-10---|
|----------------------------|

Riff 5 
|------------------------------------|
|------------------------------------|
|--------------------------9-12-10---|
|---7------8-10--8--7------9-12-10---|
|---7------8-10--8--7------7-10--8---|
|---5------6--8--6--5----------------|

Under Solo

Riff 4

Riff 5


Fast Part I am not to shure, but its something like this: 
|---------------------------------------------------------------------------------
|---------------------------------------------------------------------------------
|---------------------------------------------------------------------------------
|---7------3-5-7-7-710-9-7-7-7-3-5-7-7-710-9-7-7-7-3-5-9-9-9-1211-9-9-9-5-7-9-9-9-
|---7------3-5-7-7-710-9-7-7-7-3-5-7-7-710-9-7-7-7-3-5-9-9-9-1211-9-9-9-5-7-9-9-9-
|---5------1-3-5-5-5-8-7-5-5-5-1-3-5-5-5-8-7-5-5-5-1-3-7-7-7-10-9-7-7-7-3-5-7-7-7-


-----------------------------------------------------------|
-----------------------------------------------------------|
-----------------------------------------------------------|
-1211-9-9-9-3-5-7-7-7-10-9-7-7-7-3-5-7-7-710-9-7-7-7-3-5---|
-1211-9-9-9-3-5-7-7-7-10-9-7-7-7-3-5-7-7-710-9-7-7-7-3-5---|
-10-7-7-7-7-1-3-5-5-5--8-7-5-5-5-1-3-5-5-5-8-7-5-5-5-1-3---|


Riff 2

Riff 3

Fill

Thats All
Enjoy
Tap to rate this tab
# A B C D E F G H I J K L M N O P Q R S T U V W X Y Z