Sarcofago - Piercings tab

---------------------------------------------------| X4
---------------------------------------------------|
---------------------------------------------------|
-0------------(0)--------8------(8)----------------|
-0------------(0)----\7--6------(6)----------------|
-2------------(2)----------------------------------|

intro solo
-------7-8-7-------|
-----8------8------|
---9---------------|
-------------------|
-------------------|
-------------------|
Tap to rate this tab
 
# A B C D E F G H I J K L M N O P Q R S T U V W X Y Z