Song name
# A B C D E F G H I J K L M N O P Q R S T U V W X Y Z

Sarcophagus - Grave Of Human Waste tab

#----------------------------------PLEASE NOTE---------------------------------#
#This file is the author's own work and represents their interpretation of the #
#song. You may only use this file for private study, scholarship, or research. #
#------------------------------------------------------------------------------#

GRAVE OF HUMAN WASTE
As recorded by Sarcophagus



Transcribed by Mike dickson

 Music by Mike dickson & Joes montanez
Arranged by Mike dickson , Joes montanez, and Dustin breeden
 

Gtr I (C G C F A D) - 'joes'
Gtr II (C G C F A D) - 'mike'


 4/4
  Gtrs I, II
  PM------|
                 3x
|----------------||-----------------*|----|
|---------------o||-----------------*|----|
|-----------7b9--||-----------------*|----|
|----------------||-----------------*|----|
|-0---0---0-5---o||-0-3-6-5-0-1-0-3-*|----|
|-0---0---0------||-0-3-6-5-0-1-0-3-*|----|


  Gtr II
                3x
|---------------||-----------------*|----|
|--------------o||-----------------*|----|
|---------------||-----------------*|----|
|---------------||-----------------*|----|
|--------------o||-0-3-6-5-0-1-0-3-*|----|
|-0-0-0--0-0-0--||-0-3-6-5-0-1-0-3-*|----|


  Gtrs I, II                 Gtr I              Gtr II
                          3x
|-------------------------||-----------------*|----------------------*|----|
|------------------------o||-----------------*|----------------------*|----|
|-------------------------||-----------------*|----------------------*|----|
|-------------------------||-----------------*|----------------------*|----|
|--------------3----0--0-o||---6p5---8p6p5h6-*|---10-9---13-12-10-12-*|----|
|-0-0-0--0-0-0---0--0--0--||-0-----0---------*|-0------0-------------*|----|

VERSE:  USING TRIPLETS
      Gtr II              Gtr I
                       4x                  4x
|----------------------||------------------||----|
|---------------------o||-----------------o||----|
|----------------------||------------------||----|
|----------------------||------------------||----|
|-------------3---0-0-o||---6p5---8p6p5h6-o||----|
|-0-0-0-0-0-0---0-0-0--||-0-----0----------||----|

BREAK:

  Gtrs I, II
                    8x
|-------------------||----|
|------------------o||----|
|-------------------||----|
|-------------------||----|
|-0-0-1-3-4-3-0-1--o||----|
|-0-0-1-3-4-3-0-1---||----|


  Gtr II               Gtr I
  PM-------------|     TPTP TP TP TPTP
                    8x                 8x
|-------------------||-----------------||----|
|------------------o||----------------o||----|
|-------------------||-7-8-10-11-10-8--||----|
|-------------------||-----------------||----|
|-0--1--3--4--3--1-o||-5-6--8--9--8-6-o||----|
|-0--1--3--4--3--1--||-----------------||----|

OUTRO:
  Gtrs I, II
              4x                  4x
|-------------||------------------||------|
|------------o||-----------------o||------|
|----------7--||------------------||------|
|-------------||------------------||------|
|-0--0--0--5-o||-0-0-1-3-4-3-0-1-o||-0----|
|-0--0--0-----||-0-0-1-3-4-3-0-1--||-0----|


SOLO:

  Gtr II
|------------------------------------13b15==13-13-13---------------------|
|------------------------------------13-----13-13-13pb15r=13b15r13b15----|
|-12b14===12-12-12pb14r=13-12-10-----------------------------------------|
|--------------------------------12--------------------------------------|
|------------------------------------------------------------------------|
|------------------------------------------------------------------------|


|-------------------------|------------------------*|----|
|-16p15p13----------------|------------------------*|----|
|----------13p12p10-12p10-|-12b14r10-12b14r10------*|----|
|-------------------------|-------------------12---*|----|
|-------------------------|------------------------*|----|
|-------------------------|------------------------*|----|





--------------------------------------------------------------------------------


Tablature Legend
----------------
 h   - hammer-on
 p   - pull-off
 b   - bend
 pb  - pre-bend
 r   - bend release (if no number after the r, then release immediately)
 /\  - slide into or out of (from/to "nowhere")
 s   - legato slide
 S   - shift slide
 - natural harmonic
[n]  - artificial harmonic
n(n) - tapped harmonic
 ~   - vibrato
 tr  - trill
 T   - tap
 TP  - trem. picking
 PM  - palm muting
\n/  - tremolo bar dip; n = amount to dip
 \n  - tremolo bar down
 n/  - tremolo bar up
/n\  - tremolo bar inverted dip
 =   - hold bend; also acts as connecting device for hammers/pulls
 <> - volume swell (louder/softer)
 x   - on rhythm slash represents muted slash
 o   - on rhythm slash represents single note slash

Misc Legend
-----------
 |  - bar
||  - double bar
||o - repeat start
o|| - repeat end
*|  - double bar (ending)
 :  - bar (freetime)
 $  - Segno
 &  - Coda
Tempo markers -  = BPM(8/16=s8/s16), where s8 = swing 8ths, s16 = swing 16ths



--------------------------------------------------------------------------------

** Generated using Power Tab Editor by Brad Larsen: The Official Power Tab Web Site
Tap to rate this tab
# A B C D E F G H I J K L M N O P Q R S T U V W X Y Z