Song name
# A B C D E F G H I J K L M N O P Q R S T U V W X Y Z

Sarcophagus - The End Will Fall tab

#----------------------------------PLEASE NOTE---------------------------------#
#This file is the author's own work and represents their interpretation of the #
#song. You may only use this file for private study, scholarship, or research. #
#------------------------------------------------------------------------------#

THE END WILL FALL
As recorded by Sarcophagus



Transcribed by Mike dickson

 Music by Mike dickson
Arranged by Mike dickson & Joes montanez
 

Gtr I (C G C F A D) - 'joes'
Gtr II (C G C F A D) - 'mike'
BASS (C G C F) - 'dustin'


 5/4
  Gtr I
                 8x
|-----1-0--------||----|
|---------3-----o||----|
|---2------------||----|
|-0---------0h2--||----|
|---------------o||----|
|----------------||----|


  Gtr II          Gtr II
          8x
|---------||---------------------------------------------------------|
|--------o||---------------------------------------------------------|
|---------||---------------------------------------------------------|
|---------||---------------------------------------------------------|
|---/8-7-o||---/8-7---------/8-7----------/8-7-----------------------|
|-0-------||-0------0-5h7-0------0-/8-7-0------0-5h7-8p7p0-8p7p5h7p0-|


  Gtr II
                         PM|
                    8x                                     8x
|-------------------||-------------------------------------||-|
|------------------o||------------------------------------o||-|
|-------------------||-------9S10---9S10---9S10---9S10\-9--||-|
|-------------------||-------9S10---9S10---9S10---9S10\-9--||-|
|------------------o||-0-----7S=8---7S=8---7S=8---7S=8\-7-o||-|
|-10p8p0h8p7p0h5h7--||-0-0-0------0------0------0----------||-|


  Gtrs I, II
         PM
                                8x                  4x
|-------------------------------||------------------||-|
|------------------------------o||-----------------o||-|
|-------------------------------||------------------||-|
|-------------------------------||------------------||-|
|-0-0-0-(0)-0-0-1-0-0-1-0-/5---o||-8-7-0-7-5-0-3-0-o||-|
|-0-0-0-(0)-0-0-1-0-0-1-0----6--||-8p7p0h7p5p0h3p0--||-|


                                   4x
|----------------------------------||-|
|---------------------------------o||-|
|----------------------------------||-|
|----------------------------------||-|
|-8-7-0-7-5-0-3-0-6-5-0-5-3-0-1-0-o||-|
|-8p7p0h7p5p0h3p0h6p5p0h5p3p0h1p0--||-|


  Gtr II                          Gtr I
                               8x                              4x
|------------------------------||------------------------------||----|
|-----------------------------o||-----------------------------o||----|
|------------------------------||-7---7-7---7-7-7-7-7-7-7-7-7--||----|
|------------------------------||------------------------------||----|
|-----------------------------o||-5b7r5-5b7r5-5-5-5-5-5-5-5-5-o||----|
|-0b2r0-0b2r0-0-0-0-0-0-0-0-0--||------------------------------||----|


  Gtr II
                                      10x
|-------20----------20b22--------------||
|-------18b20-------18----------------o||
|-------------------------------5------||
|--------------------------------------||
|---------------------------6---3b5---o||
|-0-0-0-------0-0-0-------0-6-0-----0--||


  Gtr I
                                  10x
|----------------------------------||----|
|---------------------------------o||----|
|-------7---------7---------5------||----|
|----------------------------------||----|
|-------5b7-------5b7---6---3b5---o||----|
|-0-0-0-----0-0-0-----0-6-0-----0--||----|




--------------------------------------------------------------------------------


Tablature Legend
----------------
 h   - hammer-on
 p   - pull-off
 b   - bend
 pb  - pre-bend
 r   - bend release (if no number after the r, then release immediately)
 /\  - slide into or out of (from/to "nowhere")
 s   - legato slide
 S   - shift slide
 - natural harmonic
[n]  - artificial harmonic
n(n) - tapped harmonic
 ~   - vibrato
 tr  - trill
 T   - tap
 TP  - trem. picking
 PM  - palm muting
\n/  - tremolo bar dip; n = amount to dip
 \n  - tremolo bar down
 n/  - tremolo bar up
/n\  - tremolo bar inverted dip
 =   - hold bend; also acts as connecting device for hammers/pulls
 <> - volume swell (louder/softer)
 x   - on rhythm slash represents muted slash
 o   - on rhythm slash represents single note slash

Misc Legend
-----------
 |  - bar
||  - double bar
||o - repeat start
o|| - repeat end
*|  - double bar (ending)
 :  - bar (freetime)
 $  - Segno
 &  - Coda
Tempo markers -  = BPM(8/16=s8/s16), where s8 = swing 8ths, s16 = swing 16ths



--------------------------------------------------------------------------------

** Generated using Power Tab Editor by Brad Larsen: The Official Power Tab Web Site
Tap to rate this tab
# A B C D E F G H I J K L M N O P Q R S T U V W X Y Z