Guitaretab - guitar tabs
Song name
# A B C D E F G H I J K L M N O P Q R S T U V W X Y Z

Saron Gas - Dazed And Abused tab

Saron Gas - Dazed and Abused

Okay, firstly this song is 100% correct!! If you think other wise thereís a very good 
you just not playing it properly or Iíve confused you somehow. This song is mainly 3 riffs 
slightly each time.
Itís also my first tab Iíve done so please rate and comment!!
Any questions or corrections (if any) just email me at xxsilentxxscreamzxx@gmail.com


Riff A
E|-------------------------------------------------------------------|
B|-------------------------------------------------------------------|
G|-------------------------------------------------------------------|
D|-----0-------0-------0-----------------0-------0-------0-----------|
A|---1---0---0---0---1---0-------------1---0---0---0---1---0---------|
E|-3-------1-------3-------1---1--2--3-------1-------3-------1---1-2-|


Riff B
E|-------------------------------------|
B|-------------------------------------|
G|-------------------------------------|
D|-----0-------0-------0-------0-------|
A|---1---0---0---0---1---0---0---0-----|
E|-3-------1-------3-------1-----------|


Riff C
E|-------------------------------------|
B|-------------------------------------|
G|-----0-------0-------0-------0-------|
D|---1---0---0---0---1---0---0---0-----|
A|-3-------1-------3-------1-----------|
E|-------------------------------------|

[ Tab from: http://www.guitaretab.com/s/saron-gas/178737.html ]
Riff D
E|-------------------------------------|
B|-------------------------------------|
G|-----00----00----0--------00---------|
D|---1-----0-----1---0----0------------|
A|-3-----1-----3-------1---------------|
E|-------------------------------------|

Riff E
E|-------------------------------------------------------------------|
B|-------------------------------------------------------------------|
G|-------------------------------------------------------------------|
D|-----0-------0-------0-----------------0-------0-------0-----------|
A|---1---0---0---0---1---0-------------1---0---0---0---1---0---------|
E|-3-------1-------3-------1---1--2--3-------1-------3-------1---1-2-|
PM - - - - - - - - - - - - -   -  -

Riff F
E|---------------|
B|---------------|
G|---------------|
D|---------------|
A|--1-(Let-Ring)-|
E|--3-(Let-Ring)-| End on this

Structure
AX1
BX4
CX2
AX1
BX4
CX2
AX1
BX2
DX2
EX1
BX4
CX2
BX2
DX2
AX1
FX1


Lyrics -

Verse 1-
Amuse myself with pots of paint
Producing demons within us
Pointless trails but donít be late
Cuz someoneís always pissed off

Chorus-
Disrespect me cuz Iím ugly
Donít give me your stupid pity

Verse 2-
There are no hands to tell the time
Master of my destination
Your selfish hands invade this time
And break through all of my fences

Chorus
Verse 1
Chorus
Chorus

----------------------------------------------------------------------

Thatís everything you will need to jam along to this song, itís really simple even 
the structure looks a lil confusing..
ENJOY AND DONĒT FORGET TO RATE!!
Related for Dazed And Abused tab