Song name
# A B C D E F G H I J K L M N O P Q R S T U V W X Y Z

Saron Gas - 69 Tea tab

-------------------------------------------------------------------------------
			     69 Tea - Saron Gas
-------------------------------------------------------------------------------

By: supernova1984

Intro/Verse

    G5  D5    A5  Bb5
e|---------------------|
B|---------------------|
G|-------7-------------|
D|--5----7----7----8---|
A|--5----5----7----8---|
E|--3---------5----6---|          
   
  
Chorus

    E5 B5   A5  C5
e|---------------------|
B|---------------------|
G|--9-----------5------|
D|--9---9---7---5------|
A|--7---9---7---3------|
E|------7---5----------|

Bridge('say you will/take my pills' part)

    D5  A5  G5  Bb5
e|---------------------|
B|---------------------|
G|--7------------------|
D|--7---7---5---8------|
A|--5---7---5---8------|
E|------5---3---6------|


The lyrics are on the CD, its a brilliant CD so buy it.
Later!!!!

Tap to rate this tab
 
# A B C D E F G H I J K L M N O P Q R S T U V W X Y Z